Song name
# A B C D E F G H I J K L M N O P Q R S T U V W X Y Z

Enrique Iglesias - Dont Turn Off The Lights tab

Song:Escape
Artist:Enrique Iglesias
Album:Escape
Tabbed by Jorge Bautista
e-mail:anjor13@aol.com

WELL I THINK IS 97% CORRECT 

This is the riff that is played all the song

   B        E        | G#m      F
E|-------------------|---------------------|
B|-------------------|---------------------|
G|------4---4---4----|------4---4---3------|
D|----4---4---2---2--|----------------4----|
A|-2-----------------|----6---6------------|
E|-------------------|-4----------2--------|


Chorus: 

       B         E
If you feel like leavin'
G#m                    F#
I'm not gonna make you stay
    B              E
But soon you'll be finding
        G#m                       F#
You can run, you can hide but you can't escape my love


"solo" riff during chorus goes like this:
E|-----------------------------------------|
B|---12---12h11-7-----12-12-11--12/14------|
G|-----------------------------------------|
D|-----------------------------------------|
A|-----------------------------------------|
E|-----------------------------------------|

And there is also some sort of bridge:

        E            G#m           F#
You can run, you can hide, but you can't escape my love

        G#m          E             F#
You can run, you can hide, but you can't escape my love


WELL I HOPE IT WILL BE EASY FOR YOU TO PLAY , ENJOY IT
REMEMBER anjor13@aol.com
Tap to rate this tab
# A B C D E F G H I J K L M N O P Q R S T U V W X Y Z