Song name
# A B C D E F G H I J K L M N O P Q R S T U V W X Y Z

Enrique Iglesias - Heartbeat tab

-------------------------------------------------------------------------------
Heartbeat - Enrique Iglesias
-------------------------------------------------------------------------------
Tabbed by:RefugeXD
E-mail:blazered@gmail.com


Tuning:Standard
Main Melody:
e|---------------------------------------------------------------------------|
B|---------------------------------------------------------------------------|
G|-----8-7--------------------------------8-7--------------------------------|
D|---------5----------------------------------5------------------------------|
A|---------------------------------------------------------------------------|
E|---------------------------------------------------------------------------|

e|---------------------------------------------------------------------------|
B|---------------------------------------------------------------------------|
G|-----8-7--------------------------------8-7--------------7-----------------|
D|---------3----------------------------------3------------------------------|
A|---------------------------------------------------------------------------|
E|---------------------------------------------------------------------------|
Pre Chorus
e|---------------------------------------------------------------------------|
B|-----5--------------------------3------------------------------------------|
G|-----7--------------------------5------------------------------------------|
D|-----7--------------------------5------------------------------------------|
A|---------------------------------------------------------------------------|
E|---------------------------------------------------------------------------|

This is a pretty mad song, so I decided to give it a crack.
To me this sounds right, if anyone has anything to change just email me.

Enjoy
RefugeXD
;)
Tap to rate this tab
# A B C D E F G H I J K L M N O P Q R S T U V W X Y Z