Song name
# A B C D E F G H I J K L M N O P Q R S T U V W X Y Z

Enrique Iglesias - Bailamos tab

Artist:         Enrique Iglesias
Song:           Bailamos
Type:           Guitar Tab      
Tuning:         Standard
Tabbed By:      Adam Pieper (UG Name: peepster1005)(Email: peepster1005.tabs@hotmail.com)
Tabbed On:      March 24th, 2013
YouTube:        iliketoeatsoup (http://www.youtube.com/user/iliketoeatsoup)
Cover URL:      http://www.youtube.com/watch?v=67msK3hwc6U

Have a question? Post a comment, or email me at the address above!

Check out this tab in action - http://www.youtube.com/watch?v=67msK3hwc6U

This tab features both lead and rhythm guitar. You can find the rhythm section towards the bottom!


Guitar 1 - Lead Guitar

Intro   
                                               "Esta noche bailamos. Te doy toda mi vida."
E |---------------------------------------------------------------|
B |---------------------------------------------------------------|
G |---------------------------------------------------------------|
D |-----9-10-9-7-9~~--7-------------------------------------------|
A |--/7-----------------8~~~~--------7h8p7h8p7~~~~~~--------------|
E |---------------------------------------------------------------|

Pre-Verse 1

E |----------------------------------------------------------------------|
B |----------------------------------------------8-----------------------|
G |------------------------------------------------10-9-7~~--------------|
D |--7-9-10-9-7-9~~-7--------------------------7------------10-9-7~~~~---|
A |-------------------8~~~~----7-8-7s5-7~~~~~~---------------------------|
E |----------------------------------------------------------------------|

Verse 1

"Tonight we dance. I will leave my life in your hands. We take the floor. Nothing 
is forbidden anymore."

                                      -- No Guitar --

Pre-Chorus 1

"Don't let the world dim my sight, don't let a moment go by. Nothing can stop us tonight."

E |------------------------------------------------------------------------------|
B |------------------------------------------------------------------------------|
G |---------------------------------------------------------13----13----13~~~~---|
D |------------------------------------------------------14----14----14----------|
A |------------------------------------------------------------------------------|
E |------------------------------------------------------------------------------|

Chorus  1

"Bailamos. Let the rhythm take you over, bailamos. 
Te quiero amor mio, bailamos. 
Gonna live this night forever, bailamos.
Te quiero amor mio..."


Pre-Verse 2/Mini-Solo

  ....te quiero."
E |----------------------------------------------------------------------|
B |----9---9---9-9~~~-9-10p9---------------------------------------------|
G |--9---9---9---------------9---9---------------------------------------|
D |----------------------------9---9h10p9-7~~~~--9s10-9-10-9-7-7~~~------|
A |----------------------------------------------------------------------|
E |----------------------------------------------------------------------|


E |--------------------------------------------------------------------|
B |--------------------------------------------------------------------|
G |---9h10-9h10-9h10---------------------------------------------------|
D |-------------------10-10s12~~~~~------10p9--------------------------|
A |-----------------------------------10------12p10h12~~~~-------------|
E |--------------------------------------------------------------------|

Verse 2

"Tonight I'm yours...........We can make it happen I'm so sure."

E |----------------------------------------------------------------------------|
B |----------------------------------------------------------------------------|
G |---------------7s9-7--------------------------------------------------------|
D |---------------------10-9-9~~---------------------7-9-10-9-7-9s10~~~~-------|
A |------------------------------------------------7---------------------------|
E |----------------------------------------------------------------------------|


"Now I'm letting go..........There is something I think you should know."

E |---------------------------------------------------------|
B |---------------------------------------------------------|
G |----------------7s9-7s9-7~~~~----------------------------|
D |---------------------------------------------------------|
A |---------------------------------------------------------|
E |---------------------------------------------------------|

Pre-Chorus 2

         "I won't be leaving your side, we're gonna dance through the night. 

E |------------------------------------------------------------------|
B |------------------------------------------------------------------|
G |------------------------------------------------------------------|
D |---6---9-10-9-7~~~~---------------9~~~~-----------9-10-7-9s10~~~--|
A |-7----------------------------------------------------------------|
E |------------------------------------------------------------------|


"I'm gonna reach for the stars."

E |---------------------------------------------------------------------|
B |-------------------------9~---9~---10-10s12~~------------------------|
G |----------------------------9----9-----------------------------------|
D |-----------------------9---------------------------------------------|
A |---------------------------------------------------------------------|
E |---------------------------------------------------------------------|


Chorus  2

"Bailamos, let the rhythm take you over, bailamos............Te quiero, amor mio, bailamos."

E |-------------------------------------------------------------------------|
B |---------8-8-8-8-8-------------------------------------------------5~~---|
G |----9h10-----------10-9-7-9~~~--2p0h2~~~~~-----------------------5-------|
D |---------------------------------------------------------------7---------|
A |-------------------------------------------------------------------------|
E |-------------------------------------------------------------------------|

"Gonna live this night forever, bailamos....Te quiero.....amor mio.....te quiero."

E |----------------------------------------------------------------------4---4---4-4~~--|
B |---------8-8-8-8-8--------------------------------------------------5---5---5--------|
G |----9h10-----------10-9-7-9h10p9~~~----9-10-9-7~~~-7-9-7-----------------------------|
D |---------------------------------------------------------10~~~~--9-------------------|
A |-------------------------------------------------------------------------------------|
E |-------------------------------------------------------------------------------------|


Bridge 1

               "Tonight we dance.             I know tomorrow.                If you will stay with me."
"(Woah, oh oh oh)              (Woah, oh oh oh)              (Woah, oh oh oh.)"

E |---------------------------------------------------------------------------------------------------|
B |----------------------------------------------------8-10s12----------------------8-10s12-----------|
G |---------------------------------------------------------------------------------------------------|
D |----------------------------------------------------------(The 8's are palm muted)-----------------|
A |---------------------------------------------------------------------------------------------------|
E |---------------------------------------------------------------------------------------------------|

Guitar Solo

"Te quiero, mi amor."

E |-------------------------------------------------------------------------------------|
B |-------------------------------------------------------------------------------------|
G |---------------------------------------7----7s9-7~~~~--10-9-7---9-10-9-7-9-10-9-7///-|
D |------------7-9-10~-9-7-9-10-9~~~-9-10---10------------------------------------------|
A |----------7--------------------------------------------------------------------------|
E |-------------------------------------------------------------------------------------|

                            "Quedate Comigo."                       "Esta noche."               

E |--------------------------------------------8-10-10~~-8-10s12-10~~~------------------|
B |---6s8-6---------------------------------10------------------------------------------|
G |---------9-7----------------5~~~-----------------------------------------------------|
D |-------------10-9-7-------7----------------------------------------------------------|
A |--------------------10-7~------------------------------------------------------------|
E |-------------------------------------------------------------------------------------|

                          "Bailamos."

E |----8--------------8-----------------------------------------------------------------|
B |------10---12-10-----10---12-10----10-8----------------------------------------------|
G |--9------9-------9------9---------------7-5-4-4h5p4----------------------------------|
D |----------------------------------------------------7-5------------------------------|
A |--------------------------------------------------------8-7-7h8p7--------------------|
E |------------------------------------------------------------------8-7-5~~~~~---------|

Chorus  3

"Bailamos........let the rhythm take you over, bailamos...Te quiero, amor mio, bailamos."

E |-------------------------------------------------------------------------------------|
B |-------------------------------------------------------------------------------------|
G |------12-10-9h10p9----9~~~~-------------------------9-10-9-7-9~~~~-------------------|
D |-------------------12----------------------------------------------------------------|
A |----7--------------------------------------------------------------------------------|
E |-------------------------------------------------------------------------------------|

"Gonna live this night forever, bailamos.............Te quiero...amor mio."

E |-------------------------------------8-10--7-8-5~~~~-----------|
B |---------------------------------------------------------------|
G |---------------------------------------------------------------|
D |---------------------------------------------------------------|
A |---------------------------------------------------------------|
E |---------------------------------------------------------------|

"Bailamos...let the rhythm take you over, bailamos...Te quiero, amor mio, bailamos."

E |---------------------------------------------------8----------------------|
B |----------8-8-8-8-8-----------------------------10---10-8~~~~-------------|
G |-----9h10-----------10-9-7-9~~~--2p0h2~~~~~-------------------------------|
D |--------------------------------------------------------------------------|
A |--------------------------------------------------------------------------|
E |--------------------------------------------------------------------------|

-- End Guitar 1 --

Guitar 2 - Rhythm Guitar
 
                      Chords
     Am    Dm     G      F      E      C      E7                
E |--0-----1------3------1------0------0------0---|
B |--1-----3------3------1------0------1------0---|
G |--2-----2------0------2------1------0------1---|
D |--2-----0------0------3------2------2------0---|
A |--0-----0------2------3------2------3------2---|
E |--------0------3------1------0------0------0---|

Lyrics:

Esta noche bailamos
Te doy toda mi vida.

Am Dm Am Dm 

Quedate conmigo. 

Am         Dm
Tonight we dance. 
G               F            Am
I will leave my life in your hands.
Am          Dm
We take the floor.
G             F         E
Nothing is forbidden anymore. 
              Am   
Don't let the world dim my sight,
            F
Don't let a moment go by.
C           G        E
Nothing can stop us tonight.

Am                G               F            Am
Bailamos, let the rhythm take you over bailamos. 
    G          F            Am  
Te quiero amor mio, bailamos.
      G               F                Am        
Gonna live this night forever, bailamos.  
   G           F             E                  
Te quiero amor mio, te quiero.


Bridge:  Am    Dm    Am    Dm

Am          Dm
Tonight I'm yours.
G              F              Am
We can make it happen, I'm so sure.
                Dm
Now I'm letting go. 
G                  F                      E
There is something I think you should know. 

Am
I won't be leaving your side, 
            F
We're gonna dance through the night. 

C         G             E
I'm gonna reach for the stars.

Am                G               F            Am
Bailamos, let the rhythm take you over bailamos. 
   G            F            Am 
Te quiero, amor mio, bailamos.
      G                   F            Am        
Gonna live this night forever, bailamos. 
   G           F             E                  
Te quiero amor mio, te quiero.

-------------------------------------------------|
                                                 |
Am               G          F                    |         
(Woah, oh oh oh) Tonight we dance.               |
Am                 G         F                   |              
(Woah, oh oh oh) I know tomorrow.                | 
Am                  G        F         Am        |--- Strum these chords one time each.                 
(Woah, oh oh oh) If you will stay with me.       | 
     E7                                          | 
Te quiro, mi amor.                               |  
                                                 |
-------------------------------------------------|

Am     G     F    <--- Repeat these chords to the end of the song. 


-- End Guitar 2 --
Tap to rate this tab
# A B C D E F G H I J K L M N O P Q R S T U V W X Y Z