Song name
# A B C D E F G H I J K L M N O P Q R S T U V W X Y Z

Enrique Iglesias - Rhythm Divine tab

Rhythm Divine
By: Enrique Iglesias
Tabbed by: Ha-cunha-matata
Tuning:Standard

There are 2 guitars in this song so I tried to tab both
and timed the playing with the lyrics as best I could.
It was pretty hard but let me know what you think. : )

Guitar 1 is basically all the “flamenco” style licks, it can play the
chords while it’s not playing the melodies.

 Guitar 1 Intro:
e|-12-12-10----(10)-----7-8-(7)------5-3-(5)---------------------------------------|
B|-----------12---------------------------------5-5/6—-6/8\5—5h6p5-(3)-------------|
G|---------------------------------------------------------------------------------|
D|---------------------------------------------------------------------------------|
A|---------------------------------------------------------------------------------|
E|---------------------------------------------------------------------------------|

Guitar 1: at the end of “I will follow you wherever you may be” in (verse 1)
e|---------------------------------------------------------------------------------|
B|---5-6-(5)-----------------------------------------------------------------------|
G|-----------7-5-(2)---------------------------------------------------------------|
D|---------------------------------------------------------------------------------|
A|---------------------------------------------------------------------------------|
E|---------------------------------------------------------------------------------|

Guitar 1: right when he says “...Never be another for me...”(verse 1) then it goes into 
the chorus
e|---------------------------------------------------------------------------------|
B|--/8--8-8-8-6-5-(6)--------------------------------------------------------------|
G|---------------------------------------------------------------------------------|
D|---------------------------------------------------------------------------------|
A|---------------------------------------------------------------------------------|
E|---------------------------------------------------------------------------------|
   Guitar 1: Right after he says “can you taste our loves sweet wine”(verse 2)
e|-10-12-10------------------------------------------------------------------------|
B|----------12-(10)—10\(8)-8\6--3-(5)----------------------------------------------|
G|---------------------------------------------------------------------------------|
D|---------------------------------------------------------------------------------|
A|---------------------------------------------------------------------------------|
E|---------------------------------------------------------------------------------|

Guitar 1 in chorus 2: right when he says “...mine”
e|---7-8-7--7-8-7---------------12-12-10-8-(8)-------------------------------------|
B|------------------10/(12)--------------------------------------------------------|
G|---------------------------------------------------------------------------------|
D|---------------------------------------------------------------------------------|
A|---------------------------------------------------------------------------------|
E|---------------------------------------------------------------------------------|




Guitar 1 bridge: “...having it all...”
e|--7-3-3-3/5----------------------------------------------------------------------|
B|---------------------------------------------------------------------------------|
G|---------------------------------------------------------------------------------|
D|---------------------------------------------------------------------------------|
A|---------------------------------------------------------------------------------|
E|---------------------------------------------------------------------------------|
Guitar 1 chorus 3: “...heart will be mine”
e|---8-7-5/7-----------------------------------------------------------------------|
B|---------------------------------------------------------------------------------|
G|---------------------------------------------------------------------------------|
D|---------------------------------------------------------------------------------|
A|---------------------------------------------------------------------------------|
E|---------------------------------------------------------------------------------|
Guitar 1 outro: after he says “can you feel the rhythm burning” 6 times
e|-8-8-8-7-5-7-5-(7)--10-10-10-8-7-8-7-(8)--7-5-7/8-7-5----------------------------|
B|-------------------------------------------------------8-8-----------------------|
G|---------------------------------------------------------------------------------|
D|---------------------------------------------------------------------------------|
A|---------------------------------------------------------------------------------|
E|---------------------------------------------------------------------------------|
That’s it for guitar 1
Guitar 2 is just acoustic chords over the lyrics

Feel the rhythm (guitar 1 plays intro)

Verse 1:
Am
From the coast of Ipanema

To the island of Capri

All the way to Kuala Lumpur
       Em             Am          Em
I will follow you wherever you may be
         Am
From the moment I first saw you

Knew my heart could not be free

Have to hold you in my arms now
          Em          Am
There can never be another for me

Chorus:
      G           F
All I need is the rhythm divine
F           C           G
Lost in the music, your heart will be mine
      G          F
All I need is to look in your eyes
F       C       G
Viva la musica, say you'll be mine

Verse 2, chorus 2
Bridge(couldn’t figure this one out):
Am
Gonna have this feeling forever

Gonna live this moment together
Em
Nothing else matters just you and the night
Am
Follow on the wings of desire

Now the rhythm's taking you higher
Em
No one can stop us from havin' it all
Am                Em
You are my heart, you are my soul

Chorus 3x2

Outro x4(this was kinda hard too):
G
Can you feel the rhythm
F
Can you feel the rhythm
F
Can you feel the rhythm
C
Burning, burning

Legend:
()- let it ring
/-slide up
\-slide down
h-hammer on
p-pull off
Tap to rate this tab
# A B C D E F G H I J K L M N O P Q R S T U V W X Y Z