Song name
# A B C D E F G H I J K L M N O P Q R S T U V W X Y Z

Enrique Iglesias - Tired Of Being Sorry chords

Highlighted       Show chord diagrams
My first tab,hope you like it.I think it sounds exactly like the song,feel free to 
make corrections.Have fun!

Intro:

                      Fm
|-3---3---3h4-3----------------------------------|
|---------------6-4-4/6--------------------------|
|------------------------------------------------|
|------------------------------------------------|
|------------------------------------------------|
|------------------------------------------------|

                     Cm
|-3--3--3--3-h4----------------------------------|
|---------------6--4-----------------------------|
|--------------------5---------------------------|
|------------------------------------------------|
|------------------------------------------------|
|------------------------------------------------|

             Fm                            G
|--8/6-6/4--4-----------------------------------|
|--9/8--8/6--6---------3--h4-h6-h4-----3h4h3-----|
|------------------------------------------------|
|------------------------------------------------|
|------------------------------------------------|
|------------------------------------------------|

               Fm
I don't know why
                           Cm
You wanna follow me tonight?
                            Fm
When in the rest of the world
                                   G
With whom I've crossed and I've quarreled

              Fm
Let's me down so
                           Cm
A thousand reasons that I know
                     Fm
To share forever the unrest
                         G                          Cm
With all the demons I possess, beneath the silver moon

                   Fm      Bb
Maybe you were right
               Eb       Ab
But baby I was lonely
               Fm      Bb
I don't wanna fight
                   Cm
I'm tired of being sorry




                 Fm
Keep the oceans dry
              Cm
With all the vampires and their brides
                    Fm
We're all bloodless and blind
                   G                      Cm
And longing for a life beyond the silver moon

                   Fm      Bb
Maybe you were right
               Eb       Ab
But baby I was lonely
               Fm      Bb
I don't wanna fight
                   Cm
I'm tired of being sorry
                    Fm            Bb
I'm standing in the street yeah
                Eb       Ab
Crying out for you
         Fm      Bb
No one sees me
                Cm
But the silver moon


    Eb
So far away

So outer space
       Ab
I've trashed myself, I've lost my way
      G 
I've got to get to you, got to get to you

                   Fm      Bb
Maybe you were right
               Eb       Ab
But baby I was lonely
               Fm      Bb
I don't wanna fight
                   Cm
I'm tired of being sorry

                    Fm            Bb
I'm standing in the street yeah
                Eb       Ab
Crying out for you
         Fm      Bb
No one sees me
                Cm
But the silver moon....
Tap to rate this tab
# A B C D E F G H I J K L M N O P Q R S T U V W X Y Z