Song name
# A B C D E F G H I J K L M N O P Q R S T U V W X Y Z

Enrique Iglesias - Let Me Be Your Hero tab

Intro:

G                    Em                C                 D

E-------3-----3----------3------3----------3-----3------------3-----3--|(ring)
B---------3-----3----------3------3----------3-----3------------3------|
G-----0-----0-----0----0-----0------0----0-----0-----0------0-----0----|
D--------------------------------------------------------0-------------|
A--------------------------------------3-------------------------------|
E--3-----------------0-------------------------------------------------|


Verses

G                    Em                    C                 D

E-------3-----3----------3------3--------------3-----3-------------3-------------3--|(ring)
B---------3-----3----------3------3--------------3------3-------------3-------------|
G-----0-----0-----0----0-----0------0--------0------0-----0------0-------0----------|
D-------------------------------------------------------------0---------------------|
A-------------------------------------------3---------------------------------------|
E--3-----------------0--------------------------------------------------------------|

I.Would you dance.....if I asked you to dance..Would you run......and never look back
II.Would you tremble..if I touched your lips...Would you laugh..oh please tell me this


G                   Em                          C                     G (strum)

E-------3-----3----------3------3-------------------3-------------3---3-~~~~~~~~~~
B---------3-----3----------3------3--------------------3--------------3-~~~~~~~~~~
G-----0-----0-----0----0-----0------0-------------0-------------0-----0-~~~~~~~~~~
D------------------------------------------------------------0--------0-~~~~~~~~~~
A-----------------------------------------------3---------------------2-~~~~~~~~~~
E--3-----------------0------------------------------------------------3-~~~~~~~~~~
I.Would you cry.......if you saw me crying..Would you save my soul....... tonight
II.Now would you die...for the one you love..Hold me in your....arms tonight

Chorus I : (Just strum and figure it out)

G     D            C
I can be your hero baby
G     D            C
I can kiss away the pain
G     D            C
I will stand by you forever
G     D            C
You can take my breath away


Would you swear that you'll always be mine
Would you lie would you run and hide
Am I in too deep have I lost my mind
Well I don't care you're here tonight

Repeat Chorus I

Chorus II

I can be your hero
I can kiss away the pain
And I will stand by you forever
You can take my breath away
You can take my breath away
I can be your hero

If you have questions please email me at MMirador23@hotmail.com.  Enjoy :)
Tap to rate this tab
 
# A B C D E F G H I J K L M N O P Q R S T U V W X Y Z