Song name
# A B C D E F G H I J K L M N O P Q R S T U V W X Y Z

Enriquez De Valderrabano - Sonnet tab

Composer: Enriquez De Valderrabano (1500-1551)
Title: Sonnet
Transcribed by: David Threlfall
Email: SonnyLPool@msn.com

3/4 TIME

|-2----------0------|-2-----5-----------|-2-----------------|
|-------3-----------|-------------3-----|-------------3-----|
|-2----------2------|-2-----------4-----|-2-----------------|
|-0-----------------|-0-----------5-----|-0-----------------|
|-------2----4------|-------------------|-------------------|
|-------------------|-------------------|-------------------|
  1  +  2  +  3  +    1  +  2  +  3  +    1  +  2  +  3  +

|-2-----------0-----|-2-----5-----------|-2-----------------|
|-------3-----------|-------------3-----|-------3-----------|
|-2-----------2-----|-2-----------4-----|-2-----------------|
|-0-----------------|-0-----------5-----|-0--------2--0-----|
|-------2-----4-----|-------------------|----------------4--|
|-------------------|-------------------|-------------------|
  1  +  2  +  3  +    1  +  2  +  3  +    1  +  2  +  3  +

|-------2-----4-----|-5--------3--2--0--|-2-----0-----0-----|
|-3-----------------|-------------------|-------2-----------|
|-------------------|-------2-----------|-2-----2-----2-----|
|-------------------|-------------------|-------------------|
|-2-----------2-----|-0-----------------|-------------4-----|
|-------------------|-------------------|-------------------|
  1  +  2  +  3  +    1  +  2  +  3  +    1  +  2  +  3  +

|-0-----------0-----|-------------------|-------------------|
|-0-----------0-----|-2-----------3-----|-2-----0--2--3-----|
|-------2-----1-----|-2--------0--------|----2--------------|
|-2-----4-----------|-------------4-----|-2-----------------|
|-------------------|-0-----0-----------|-0-----------------|
|-------------------|-------------------|-------------------|
  1  +  2  +  3  +    1  +  2  +  3  +    1  +  2  +  3  +

|-------------------|-------------------|-------------0-----|
|-2-----------3-----|-2-----------------|-2-----3-----------|
|-2--------0--------|-------------2-----|-------------2-----|
|-------------4-----|-2-----------------|-------------------|
|-0-----0-----------|-0-----------------|-0-----2-----4-----|
|-------------------|-------------------|-------------------|
  1  +  2  +  3  +    1  +  2  +  3  +    1  +  2  +  3  +

|-2-----------------|-2-----0------3----|-2-----------------|
|-------------3-----|-3-----2-----------|-------------3-----|
|-2-----------------|--------------4----|-2-----------------|
|-0-----------------|-0-----------------|-0-----------------|
|-------------------|-------------------|-------------------|
|-------------------|-------------------|-------------------|
  1  +  2  +  3  +    1  +  2  +  3  +    1  +  2  +  3  +

|-2-----0-----3-----|-2-----------2-----|-0-----------------|
|-3-----2-----------|-------3-----------|----3--2--0--------|
|-------------4-----|-2-----------2-----|-------------2-----|
|-0-----------------|-0-----------0-----|-2-----------4-----|
|-------------------|-------2-----------|-------------------|
|-------------------|-------------------|-------------------|
  1  +  2  +  3  +    1  +  2  +  3  +    1  +  2  +  3  +

|----------5--3--2--|-0-----------------|-0-----------0-----|
|-0-----------------|-------------3-----|-------------------|
|-0-----------------|-2-----0-----------|-------------2-----|
|-------------------|-------------4-----|-2-----------------|
|-------------------|-------------------|-------2-----4-----|
|-------3-----------|-------------------|-------------------|
  1  +  2  +  3  +    1  +  2  +  3  +    1  +  2  +  3  +

|-2-----------2-----|-0-----------------|----------5--3--2--|
|-------3-----------|----3--2--0--------|-0-----------------|
|-2-----------2-----|-------------2-----|-0-----------------|
|-0-----------0-----|-2-----------4-----|-------------------|
|-------2-----------|-------------------|-------0-----------|
|-------------------|-------------------|-------------------|
  1  +  2  +  3  +    1  +  2  +  3  +    1  +  2  +  3  +

|-0-----------------|-0-----------0-----|------------------||
|-------------3-----|-------------------|-3----------------||
|-2-----0-----------|-------------2-----|-2----------------||
|-------------4-----|-2-----------------|-0----------------||
|-------------------|-------2-----4-----|------------------||
|-------------------|-------------------|------------------||
  1  +  2  +  3  +    1  +  2  +  3  +    1  +  2  +  3  +


***********************************************************************

File created with Instab - http://www.pconline.com/~smcarey/instab.html

Tap to rate this tab
# A B C D E F G H I J K L M N O P Q R S T U V W X Y Z