Song name
# A B C D E F G H I J K L M N O P Q R S T U V W X Y Z

Ensiferum - Kalevala Melody tab

-------------------------------------------------------------------------------
			                   ENSIFERUM - Kalevala Melody
-------------------------------------------------------------------------------
Tabbed by: Jesse \,,/
Email: jesse_636@hotmail.com

Tuning: 1 step down (DGCFAd)
Lead Guitar:
e||-------------7--9--9------------/7--7------------------------------------|
B||--/7--9--10-----------9---9------------/10--10--/9--9--7---7-------------|
G|.-------------------------------------------------------------------------|
D|.-------------------------------------------------------------------------|
A||-------------------------------------------------------------------------|
E||-------------------------------------------------------------------------|

e|-------------------------------/7------------------------------------------|
B|--7--6--7--9--10--7--9---9---------9--10--7--9--10--7---7------------------|
G|---------------------------------------------------------------------------|
D|---------------------------------------------------------------------------|
A|---------------------------------------------------------------------------|
E|---------------------------------------------------------------------------|

e|--9--9--7-----9--7-----------------------7---------------------------------|
B|-----------9-------10-9---9-------10--7-----10--/9--10--7---7--------------|
G|---------------------------------------------------------------------------|
D|---------------------------------------------------------------------------|
A|---------------------------------------------------------------------------|
E|---------------------------------------------------------------------------|

e|------------------9---------------9---------7------------------------------|
B|--7--7--9--9--10-----9----9----------10--9-----/10--9--7--7----------------|
G|---------------------------------------------------------------------------|
D|---------------------------------------------------------------------------|
A|---------------------------------------------------------------------------|
E|---------------------------------------------------------------------------|
                                                          
e|--9--9--/7--7-----------------------7--7---------------------------------||
B|---------------/10--10--9---9-------------/10--10--/9--9--7----7---------||
G|-------------------------------------------------------------------------.|
D|-------------------------------------------------------------------------.|
A|-------------------------------------------------------------------------||
E|-------------------------------------------------------------------------||
                                                            X2 the whole tab 
| /  slide up
| \  slide down       
| h  hammer-on
| p  pull-off             
| ~  vibrato
| +  harmonic
| x  Mute note
===============================================================================
Tap to rate this tab
# A B C D E F G H I J K L M N O P Q R S T U V W X Y Z