Song name
# A B C D E F G H I J K L M N O P Q R S T U V W X Y Z

Ensiferum - Old Man tab

#----------------------------------PLEASE NOTE---------------------------------#
#This file is the author's own work and represents their interpretation of the #
#song. You may only use this file for private study, scholarship, or research. #
#------------------------------------------------------------------------------#

OLD MAN
As recorded by Ensiferum
(From the 2001 Album ENSIFERUM)

Transcribed by Bryan Zamzow
	

Words and Music by Ensiferum
Arranged by Ensiferum

Gtr I (E A D G B E) - 'Synth'
Gtr II (E A D G B E) - 'Untitled'
Gtr III (E A D G B E) - 'Untitled'

   Section A [Intro]
    Q=60
    A5           E5   G5      F5 F5   A5           E5   G5      F5
   4/4
    Gtr II
    E  E E E E E Q    E E E E Q  Q    E  E E E E E Q    E E E E Q  Q
||------------------|---------------|-----------------|----------------||
||o-----------------|---------------|-----------------|---------------o||
||------------------|---------------|-----------------|----------------||
||--2--2-0-0---2----|-0-----0-------|-2--2-0-0---2----|-0--------------||
||o----------3---2--|---3-2---0--0--|----------3---2--|---3-2-2-0--0--o||
||------------------|---------------|-----------------|----------------||
|
|   Gtr III
|   H.           Q    H       Q  Q    H.           Q    H       H
||------------------|---------------|-----------------|----------------||
||o-----------------|---------------|-----------------|---------------o||
||--2---------------|---------------|-2---------------|----------------||
||--2------------2--|-5-------3--3--|-2------------2--|-5-------0------||
||o-0------------2--|-5-------3--3--|-0------------2--|-5-------0-----o||
||---------------0--|-3-------1--1--|--------------0--|-3--------------||


   Section B
    Q=80
    A5     E5  F5     G5    A5     E5  F5     G5
    E S  S E E S S  E E E   E S  S E E S S  E Q
||------------------------|----------------------|
||o-----------------------|----------------------|
||---------9-9-7-9--------|--------9-9-7-9-------|
||--7-7-10---------10-9-9-|-7-7-10---------10-9--|
||o-----------------------|----------------------|
||------------------------|----------------------|
|
|   E E    E E E    E E E   E E    E E E    E Q
||------------------------|----------------------|
||o-----------------------|----------------------|
||--2-2-------------------|-2-2------------------|
||--2-2----2-2-3----3-5-5-|-2-2----2-2-3----3-5--|
||o-0-0----2-2-3----3-5-5-|-0-0----2-2-3----3-5--|
||---------0-0-1----1-3-3-|--------0-0-1----1-3--|


  A5     E5  F5     G5    A5     E5  F5     G5
  E S  S E E S S  E E E   E S  S E E S S  E Q
|-----------------------|-----------------------||
|-----------------------|----------------------o||
|--------9-9-7-9--------|--------9-9-7-9--------||
|-7-7-10---------10-9-9-|-7-7-10---------10-9---||
|-----------------------|----------------------o||
|-----------------------|-----------------------||
|
| E E    E E E    E E E   E E    E E E    E Q
|-----------------------|-----------------------||
|-----------------------|----------------------o||
|-2-2-------------------|-2-2-------------------||
|-2-2----2-2-3----3-5-5-|-2-2----2-2-3----3-5---||
|-0-0----2-2-3----3-5-5-|-0-0----2-2-3----3-5--o||
|--------0-0-1----1-3-3-|--------0-0-1----1-3---||


 Section C
  Q=75
  A5           E5   G5      D5      A5           E5   G5      D5
  E  E E E E E Q    E E E E Q  Q    E  E E E E E Q    E E E E H
|-----------------|---------------|-----------------|--------------|
|-----------------|---------------|-----------------|--------------|
|-----------------|---------------|-----------------|--------------|
|-2--2-0-0---2----|-0-----0-------|-2--2-0-0---2----|-0------------|
|----------3---2--|---3-2---0--0--|----------3---2--|---3-2-2-0----|
|-----------------|---------------|-----------------|--------------|
|
| H.           Q    H       Q  Q    H.           Q    H       H
|-----------------|---------------|-----------------|--------------|
|-----------------|---------------|-----------------|--------------|
|-2---------------|---------------|-2---------------|--------------|
|-2------------2--|-5-------0--0--|-2------------2--|-5-------0----|
|-0------------2--|-5-------0--0--|-0------------2--|-5-------0----|
|--------------0--|-3-------------|--------------0--|-3------------|


  A5            E5   G5       D5      A5            E5   G5       D5
  E  E E E  E E Q    E  E E E Q  Q    E  E E E  E E Q    E  E E E H
|------------------|----------------|------------------|---------------|
|------------------|----------------|------------------|---------------|
|-9--9-7-7----9----|-7------7-------|-9--9-7-7----9----|-7-------------|
|----------10---9--|---10-9---7--7--|----------10---9--|---10-9-9-7----|
|------------------|----------------|------------------|---------------|
|------------------|----------------|------------------|---------------|
|
| H.            Q    H        Q  Q    H.            Q    H        H
|------------------|----------------|------------------|---------------|
|------------------|----------------|------------------|---------------|
|-2----------------|----------------|-2----------------|---------------|
|-2-------------2--|-5--------0--0--|-2-------------2--|-5--------0----|
|-0-------------2--|-5--------0--0--|-0-------------2--|-5--------0----|
|---------------0--|-3--------------|---------------0--|-3-------------|


 Section D
  Q=80
  A5     E5  F5     G5    A5     E5  F5     G5
  E S  S E E S S  E E E   E S  S E E S S  E Q
|-----------------------|----------------------|
|-----------------------|----------------------|
|--------9-9-7-9--------|--------9-9-7-9-------|
|-7-7-10---------10-9-9-|-7-7-10---------10-9--|
|-----------------------|----------------------|
|-----------------------|----------------------|
|
| E E    E E E    E E E   E E    E E E    E Q
|-----------------------|----------------------|
|-----------------------|----------------------|
|-2-2-------------------|-2-2------------------|
|-2-2----2-2-3----3-5-5-|-2-2----2-2-3----3-5--|
|-0-0----2-2-3----3-5-5-|-0-0----2-2-3----3-5--|
|--------0-0-1----1-3-3-|--------0-0-1----1-3--|


  A5     E5  F5     G5
  E S  S E E S S  E E E   E S  S E E S S  E Q
|-----------------------|-----------------------|
|-----------------------|-----------------------|
|--------9-9-7-9--------|--------9-9-7-9--------|
|-7-7-10---------10-9-9-|-7-7-10---------10-9---|
|-----------------------|-----------------------|
|-----------------------|-----------------------|
|
| E E    E E E    E E E   E E    E E E    E Q
|-----------------------|-----------------------|
|-----------------------|-----------------------|
|-2-2-------------------|-2-2-------------------|
|-2-2----2-2-3----3-5-5-|-2-2----2-2-3----3-5---|
|-0-0----2-2-3----3-5-5-|-0-0----2-2-3----3-5---|
|--------0-0-1----1-3-3-|--------0-0-1----1-3---|


  E       S    S   E       E       S   S    E       E       E
|-------------------------------------------------------------------|
|-------------------------------------------------------------------|
|------------------9-------9-------7---9----------------------------|
|-7-------7---10---------------------------10-------9-------9-------|
|-------------------------------------------------------------------|
|-------------------------------------------------------------------|
|
| PM-----------------------------------------------------------------
| T T T T T T  T T T T T T T T T T T T T T  T T T T T T T T T T T T
|-------------------------------------------------------------------|
|-------------------------------------------------------------------|
|-------------------------------------------------------------------|
|-------------------------------------------------------------------|
|-0-0-0-0-0-0--0-0--------------------------------------------------|
|------------------0-0-0-0-0-0-0-0-1-1-1-1--1-1-1-1-3-3-3-3-3-3-3-3-|


                                                      G5
  E       S    S   E       E       S   S    E       Q
|------------------------------------------------------------|
|------------------------------------------------------------|
|------------------9-------9-------7---9---------------------|
|-7-------7---10---------------------------10-------9--------|
|------------------------------------------------------------|
|------------------------------------------------------------|
|
|---------------------------------------------------|
| T T T T T T  T T T T T T T T T T T T T T  T T T T S E S
|------------------------------------------------------------|
|------------------------------------------------------------|
|------------------------------------------------------------|
|-----------------------------------------------------5-5----|
|-0-0-0-0-0-0--0-0----------------------------------5-5-5----|
|------------------0-0-0-0-0-0-0-0-1-1-1-1--1-1-1-1-3-3-3----|


  E S    S   E       E       S   S    E       E       E
|-------------------------------------------------------------|
|-------------------------------------------------------------|
|------------9-------9-------7---9----------------------------|
|-7-7---10---------------------------10-------9-------9-------|
|-------------------------------------------------------------|
|-------------------------------------------------------------|
|
|   PM---------------------------------------------------------
| E T T  T T T T T T T T T T T T T T  T T T T T T T T T T T T
|-------------------------------------------------------------|
|-------------------------------------------------------------|
|-------------------------------------------------------------|
|-7-----------------------------------------------------------|
|-7-----------------------------------------------------------|
|-5-5-5--5-5-0-0-0-0-0-0-0-0-1-1-1-1--1-1-1-1-3-3-3-3-3-3-3-3-|


                                                    G5
  E       S    S   E       E       S   S    E       Q
|--------------------------------------------------------|
|--------------------------------------------------------|
|------------------9-------9-------7---9-----------------|
|-7-------7---10---------------------------10-------9----|
|--------------------------------------------------------|
|--------------------------------------------------------|
|
|-------------------------------------------------|
| T T T T T T  T T T T T T T T T T T T T T  T T T T Q
|--------------------------------------------------------|
|--------------------------------------------------------|
|--------------------------------------------------------|
|---------------------------------------------------5----|
|-0-0-0-0-0-0--0-0----------------------------------5----|
|------------------0-0-0-0-0-0-0-0-1-1-1-1--1-1-1-1-3----|


 Section E
  A5          C             Bm         A5          C             Bm
  Gtr II
  E  S   S  S  S   S   S  S  S  e Q    E  S   S  S  S   S   S  S  S  e Q
|------------------------------------|------------------------------------|
|------------------------------------|------------------------------------|
|------------------------------------|------------------------------------|
|-2--2---2--2-(2)-(2)--2--2p=0--0-0--|-2--2---2--2-(2)-(2)--2--2p=0--0-0--|
|-0-(0)-(0)-3--3---3--(3)-3-(2)-2-2--|-0-(0)-(0)-3--3---3--(3)-3-(2)-2-2--|
|------------------------------------|------------------------------------|


  A5          C             Bm         A5          C             Bm  G E5
  E  S   S  S  S   S   S  S  S  e Q    E  S   S  S  S   S   S  S  S  E Q
|------------------------------------|--------------------------------------|
|------------------------------------|--------------------------------------|
|------------------------------------|--------------------------------------|
|-2--2---2--2-(2)-(2)--2--2p=0--0-0--|-2--2---2--2-(2)-(2)--2--2p=0---------|
|-0-(0)-(0)-3--3---3--(3)-3-(2)-2-2--|-0-(0)-(0)-3--3---3--(3)-3-(2)-2-2----|
|------------------------------------|-------------------------------3-0----|


  A5            C              Bm               A5            C              Bm  G    E5
  Gtr I
   Q          Q              E       E   E  E    Q          Q              E       E   E  +E
|-20------------------------19-----(19)-------|-20------------------------19-----(19)-15-(15)-|
|-22---------22-------------20------17--17-17-|-22---------22-------------20------17--17-(17)-|
|---------------------------------------------|-----------------------------------------------|
|---------------------------------------------|-----------------------------------------------|
|---------------------------------------------|-----------------------------------------------|
|---------------------------------------------|-----------------------------------------------|
|
| Gtr II
|  E  S   S   S  S   S   S   S  S    e   Q       E  S   S   S  S   S   S   S  S    E   Q
|---------------------------------------------|-----------------------------------------------|
|---------------------------------------------|-----------------------------------------------|
|---------------------------------------------|-----------------------------------------------|
|--2--2---2---2-(2)-(2)--2---2p=0----0---0----|--2--2---2---2-(2)-(2)--2---2p=0---------------|
|--0-(0)-(0)--3--3---3--(3)--3-(2)---2---2----|--0-(0)-(0)--3--3---3--(3)--3-(2)---2---2------|
|---------------------------------------------|------------------------------------3---0------|


                                                                                 Q=70
  A5            C              Bm               A5            C              Bm  G    E5
   Q          Q              E       E   E  E    Q          Q              E       E   E    +E
|-20------------------------19-----(19)-------|-20------------------------19-----(19)-15---(15)----|
|-22---------22-------------20------17--17-17-|-22---------22-------------20------17--17---(17)----|
|---------------------------------------------|----------------------------------------------------|
|---------------------------------------------|----------------------------------------------------|
|---------------------------------------------|----------------------------------------------------|
|---------------------------------------------|----------------------------------------------------|
|
|  E  S   S   S  S   S   S   S  S    e   Q       E  S   S   S  S   S   S   S  S    E   S S   S  S
|---------------------------------------------|----------------------------------------------------|
|---------------------------------------------|----------------------------------------------------|
|---------------------------------------------|----------------------------------------------------|
|--2--2---2---2-(2)-(2)--2---2p=0----0---0----|--2--2---2---2-(2)-(2)--2---2p=0--------------------|
|--0-(0)-(0)--3--3---3--(3)--3-(2)---2---2----|--0-(0)-(0)--3--3---3--(3)--3-(2)---2---2-2---2--2--|
|---------------------------------------------|------------------------------------3---0-0---0--0--|


   Section F
    A5              E5    G5        F5
    Gtr I
     Q     Q    Q    Q     Q    Q    Q    Q
||--20----19---20---19--|-19---19---17---17---|
||o-22----20---22---20--|-20---20---17--(17)--|
||----------------------|---------------------|
||----------------------|---------------------|
||o---------------------|---------------------|
||----------------------|---------------------|
|
|   Gtr II
|    E  E  E E  E E  Q     E E  E E  Q    Q
||----------------------|---------------------|
||o---------------------|---------------------|
||----------------------|---------------------|
||---2--2--0-0----2-----|--0------0-----------|
||o-------------3----2--|----3--2----0----0---|
||----------------------|---------------------|
|
|   Gtr II
|    H.              Q     H         Q    Q
||----------------------|---------------------|
||o---------------------|---------------------|
||---2------------------|---------------------|
||---2---------------2--|--5---------3----3---|
||o--0---------------2--|--5---------3----3---|
||-------------------0--|--3---------1----1---|


  A5              E5    G5        D5
   Q     Q    Q    Q     Q    Q    Q    Q
|-20----19---20---19--|-19---19---22--(22)----||
|-22----20---22---20--|-20---20---22--(22)---o||
|---------------------|-----------------------||
|---------------------|-----------------------||
|---------------------|----------------------o||
|---------------------|-----------------------||
|
|  E  E  E E  E E  Q     E E  E E  H
|---------------------|-----------------------||
|---------------------|----------------------o||
|---------------------|-----------------------||
|--2--2--0-0----2-----|--0--------------------||
|-------------3----2--|----3--2-2--0---------o||
|---------------------|-----------------------||
|
|  H.              Q     H         H
|---------------------|-----------------------||
|---------------------|----------------------o||
|--2------------------|-----------------------||
|--2---------------2--|--5---------0----------||
|--0---------------2--|--5---------0---------o||
|------------------0--|--3--------------------||


 Section G
  Q=80
  A5            C              Bm               A5            C              Bm
   Q          Q              E       E   E  E    Q          Q              E       E   E  E
|-20------------------------19-----(19)-------|-20------------------------19-----(19)-------|
|-22---------22-------------20------17--17-17-|-22---------22-------------20------17--17-17-|
|---------------------------------------------|---------------------------------------------|
|---------------------------------------------|---------------------------------------------|
|---------------------------------------------|---------------------------------------------|
|---------------------------------------------|---------------------------------------------|
|
|  E  S   S   S  S   S   S   S  S    e   Q       E  S   S   S  S   S   S   S  S    e   Q
|---------------------------------------------|---------------------------------------------|
|---------------------------------------------|---------------------------------------------|
|---------------------------------------------|---------------------------------------------|
|--2--2---2---2-(2)-(2)--2---2p=0----0---0----|--2--2---2---2-(2)-(2)--2---2p=0----0---0----|
|--0-(0)-(0)--3--3---3--(3)--3-(2)---2---2----|--0-(0)-(0)--3--3---3--(3)--3-(2)---2---2----|
|---------------------------------------------|---------------------------------------------|


  A5            C              Bm               A5            C              Bm  G    E5
   Q          Q              E       E   E  E    Q          Q              E       E   E  +E
|-20------------------------19-----(19)-------|-20------------------------19-----(19)-15-(15)----|
|-22---------22-------------20------17--17-17-|-22---------22-------------20------17--17-(17)----|
|---------------------------------------------|--------------------------------------------------|
|---------------------------------------------|--------------------------------------------------|
|---------------------------------------------|--------------------------------------------------|
|---------------------------------------------|--------------------------------------------------|
|
|  E  S   S   S  S   S   S   S  S    e   Q       E  S   S   S  S   S   S   S  S    E   Q
|---------------------------------------------|--------------------------------------------------|
|---------------------------------------------|--------------------------------------------------|
|---------------------------------------------|--------------------------------------------------|
|--2--2---2---2-(2)-(2)--2---2p=0----0---0----|--2--2---2---2-(2)-(2)--2---2p=0------------------|
|--0-(0)-(0)--3--3---3--(3)--3-(2)---2---2----|--0-(0)-(0)--3--3---3--(3)--3-(2)---2---2---------|
|---------------------------------------------|------------------------------------3---0---------|


  A5            C              Bm               A5            C              Bm  G    E5
   Q          Q              E       E   E  E    Q          Q              E       E   E  E
|-20------------------------19-----(19)-------|-20------------------------19-----(19)-------|
|-22---------22-------------20------17--17-17-|-22---------22-------------20------17--17-17-|
|---------------------------------------------|---------------------------------------------|
|---------------------------------------------|---------------------------------------------|
|---------------------------------------------|---------------------------------------------|
|---------------------------------------------|---------------------------------------------|
|
|  E  S   S   S  S   S   S   S  S    e   Q       E  S   S   S  S   S   S   S  S    E   Q
|---------------------------------------------|---------------------------------------------|
|---------------------------------------------|---------------------------------------------|
|---------------------------------------------|---------------------------------------------|
|--2--2---2---2-(2)-(2)--2---2p=0----0---0----|--2--2---2---2-(2)-(2)--2---2p=0-------------|
|--0-(0)-(0)--3--3---3--(3)--3-(2)---2---2----|--0-(0)-(0)--3--3---3--(3)--3-(2)---2---2----|
|---------------------------------------------|------------------------------------3---0----|


  A5            C              Bm               A5            C              Bm  G    E5
   Q          Q              E       E   E  E    Q          Q              E       E   E  +E
|-20------------------------19-----(19)-------|-20------------------------19-----(19)-15-(15)----|
|-22---------22-------------20------17--17-17-|-22---------22-------------20------17--17-(17)----|
|---------------------------------------------|--------------------------------------------------|
|---------------------------------------------|--------------------------------------------------|
|---------------------------------------------|--------------------------------------------------|
|---------------------------------------------|--------------------------------------------------|
|
|  E  S   S   S  S   S   S   S  S    e   Q       E  S   S   S  S   S   S   S  S    E   Q
|---------------------------------------------|--------------------------------------------------|
|---------------------------------------------|--------------------------------------------------|
|---------------------------------------------|--------------------------------------------------|
|--2--2---2---2-(2)-(2)--2---2p=0----0---0----|--2--2---2---2-(2)-(2)--2---2p=0------------------|
|--0-(0)-(0)--3--3---3--(3)--3-(2)---2---2----|--0-(0)-(0)--3--3---3--(3)--3-(2)---2---2---------|
|---------------------------------------------|------------------------------------3---0---------|


 Section H [Key Change]
  Q=160
  D5
  Gtr II
  W           W            W
|----------|------------|--------|
|----------|------------|--------|
|----------|------------|--------|
|----------|------------|--------|
|----------|------------|--------|
|----------|------------|--------|
|
| Gtr III
| W          +W           +W
|----------|------------|--------|
|----------|------------|--------|
|----------|------------|--------|
|-0--------|-(0)--------|-(0)----|
|-0--------|-(0)--------|-(0)----|
|----------|------------|--------|


  D5
   S  S S S S S S S S S S S S S S S    S  S S S S S S S S S S S S S S S
|-----------------------------------|-----------------------------------|
|-----------------------------------|-----------------------------------|
|---------------------------0-0-0-0-|--2--2-2-2-------------------------|
|--0--0-0-0-3-3-3-3-2-2-2-2---------|-----------3-3-3-3-2-2-2-2---------|
|-----------------------------------|---------------------------3-3-3-3-|
|-----------------------------------|-----------------------------------|
|
| +W                                  +W
|-----------------------------------|-----------------------------------|
|-----------------------------------|-----------------------------------|
|-----------------------------------|-----------------------------------|
|-(0)-------------------------------|-(0)-------------------------------|
|-(0)-------------------------------|-(0)-------------------------------|
|-----------------------------------|-----------------------------------|


  Bb5
  S S S S S S S S S S S S S S S S   S S S S S  S S S S S S S S S S S
|---------------------------------|-------------------------------------|
|---------------------------------|-------------------------------------|
|-------------------------0-0-0-0-|-2-2-2-2-----------------------------|
|-0-0-0-0-3-3-3-3-2-2-2-2---------|---------3--3-3-3-2-2-2-2------------|
|---------------------------------|--------------------------3-3-3-3----|
|---------------------------------|-------------------------------------|
|
|                                   PM--|
| W                                 E   E   H.
|---------------------------------|-------------------------------------|
|---------------------------------|-------------------------------------|
|-3-------------------------------|-3---3-------------------------------|
|-3-------------------------------|-3---3-------------------------------|
|-1-------------------------------|-1---1-------------------------------|
|---------------------------------|-------------------------------------|


  D5
  S S S S S S S S S S S S S S S S    S  S S S S S S S S S S S S S S S
|---------------------------------|-----------------------------------|
|---------------------------------|-----------------------------------|
|-------------------------0-0-0-0-|--2--2-2-2-------------------------|
|-0-0-0-0-3-3-3-3-2-2-2-2---------|-----------3-3-3-3-2-2-2-2---------|
|---------------------------------|---------------------------3-3-3-3-|
|---------------------------------|-----------------------------------|
|
| W                                 +W
|---------------------------------|-----------------------------------|
|---------------------------------|-----------------------------------|
|---------------------------------|-----------------------------------|
|-0-------------------------------|-(0)-------------------------------|
|-0-------------------------------|-(0)-------------------------------|
|---------------------------------|-----------------------------------|


  Bb5                               F5      E5      D5
  S S S S S S S S S S S S S S S S   S S S S S S S S S S S S S S S S
|---------------------------------|------------------------------------|
|---------------------------------|------------------------------------|
|-------------------------0-0-0-0-|------------------------------------|
|-0-0-0-0-3-3-3-3-2-2-2-2---------|-3-3-3-3-2-2-2-2-0-0-0-0-0-0-0-0----|
|---------------------------------|------------------------------------|
|---------------------------------|------------------------------------|
|
| W                                 Q       Q       H
|---------------------------------|------------------------------------|
|---------------------------------|------------------------------------|
|-3-------------------------------|------------------------------------|
|-3-------------------------------|-3-------2-------0------------------|
|-1-------------------------------|-3-------2-------0------------------|
|---------------------------------|-1-------0--------------------------|


    D5                                F5
    S S S S S S S S S S S S S S S S   S S S S S S S S S S S S S S S S
||----------------------------------|---------------------------------|
||o---------------------------------|---------------------------------|
||--------------------------0-0-0-0-|-2-2-2-2-------------------------|
||--0-0-0-0-3-3-3-3-2-2-2-2---------|---------3-3-3-3-2-2-2-2---------|
||o---------------------------------|-------------------------3-3-3-3-|
||----------------------------------|---------------------------------|
|
|   W                                 W
||----------------------------------|---------------------------------|
||o---------------------------------|---------------------------------|
||----------------------------------|---------------------------------|
||--0-------------------------------|-3-------------------------------|
||o-0-------------------------------|-3-------------------------------|
||----------------------------------|-1-------------------------------|


  Bb5                               A5
  S S S S S S S S S S S S S S S S   S S S S S S S S S S S S S S S S
|---------------------------------|------------------------------------|
|---------------------------------|------------------------------------|
|-------------------------0-0-0-0-|-2-2-2-2----------------------------|
|-0-0-0-0-3-3-3-3-2-2-2-2---------|---------3-3-3-3-2-2-2-2------------|
|---------------------------------|-------------------------3-3-3-3----|
|---------------------------------|------------------------------------|
|
| W                                 W
|---------------------------------|------------------------------------|
|---------------------------------|------------------------------------|
|-3-------------------------------|-2----------------------------------|
|-3-------------------------------|-2----------------------------------|
|-1-------------------------------|-0----------------------------------|
|---------------------------------|------------------------------------|


  D5                                F5
  S S S S S S S S S S S S S S S S   S S S S S S S S S S S S S S S S
|---------------------------------|---------------------------------|
|---------------------------------|---------------------------------|
|-------------------------0-0-0-0-|-2-2-2-2-------------------------|
|-0-0-0-0-3-3-3-3-2-2-2-2---------|---------3-3-3-3-2-2-2-2---------|
|---------------------------------|-------------------------3-3-3-3-|
|---------------------------------|---------------------------------|
|
| W                                 W
|---------------------------------|---------------------------------|
|---------------------------------|---------------------------------|
|---------------------------------|---------------------------------|
|-0-------------------------------|-3-------------------------------|
|-0-------------------------------|-3-------------------------------|
|---------------------------------|-1-------------------------------|


  Bb5                               F5      E5      D5
  S S S S S S S S S S S S S S S S   S S S S S S S S S S S S S S S S
|---------------------------------|-------------------------------------||
|---------------------------------|------------------------------------o||
|-------------------------0-0-0-0-|-------------------------------------||
|-0-0-0-0-3-3-3-3-2-2-2-2---------|-3-3-3-3-2-2-2-2-0-0-0-0-0-0-0-0-----||
|---------------------------------|------------------------------------o||
|---------------------------------|-------------------------------------||
|
| W                                 Q       Q       H
|---------------------------------|-------------------------------------||
|---------------------------------|------------------------------------o||
|-3-------------------------------|-------------------------------------||
|-3-------------------------------|-3-------2-------0-------------------||
|-1-------------------------------|-3-------2-------0------------------o||
|---------------------------------|-1-------0---------------------------||


 Section I
  Q=80
  D5         C5          D5         C5
  Q  S S S S E S S E E   Q  S S S S E S S E E
|----------------------|----------------------|
|----------------------|----------------------|
|-2--2-3-2-0-----------|-2--2-3-2-0-----------|
|------------2-2-3-2---|------------2-2-3-2---|
|--------------------3-|--------------------3-|
|----------------------|----------------------|
|
| H          H           H          H
|----------------------|----------------------|
|----------------------|----------------------|
|----------------------|----------------------|
|-7----------5---------|-7----------5---------|
|-5----------3---------|-5----------3---------|
|----------------------|----------------------|


  D5         C5          D5            C5
  Q  S S S S E S S E E   E S S S S S S E S S E E
|----------------------|---------------------------|
|----------------------|---------------------------|
|-2--2-3-2-0-----------|-2-2-2-2-3-2-0-------------|
|------------2-2-3-2---|---------------2-2-3-2-----|
|--------------------3-|-----------------------3---|
|----------------------|---------------------------|
|
| H          Q     E E   H             Q     E E
|----------------------|---------------------------|
|----------------------|---------------------------|
|----------------------|---------------------------|
|-7----------5-----2---|-7-------------5-----2-----|
|-5----------3-------3-|-5-------------3-------3---|
|----------------------|---------------------------|


  D5         C5            D5         C5
  Q  S S S S E S T T E E   Q  S S S S E S T T E E
|------------------------|------------------------|
|------------------------|------------------------|
|-2--2-3-2-0-0-0-2p0-----|-2--2-3-2-0-0-0-2p0-----|
|-3--3-5-3-2-2-2-3p2-2-2-|-3--3-5-3-2-2-2-3p2-2-2-|
|--------------------3-3-|--------------------3-3-|
|------------------------|------------------------|
|
| H          H             H          H
|------------------------|------------------------|
|------------------------|------------------------|
|------------------------|------------------------|
|-7----------5-----------|-7----------5-----------|
|-5----------3-----------|-5----------3-----------|
|------------------------|------------------------|


  D5         C5            D5         C5
  Q  S S S S E S T T E E   Q  S S S S E S T T E E
|------------------------|---------------------------|
|------------------------|---------------------------|
|-2--2-3-2-0-0-0-2p0-----|-2--2-3-2-0-0-0-2p0--------|
|-3--3-5-3-2-2-2-3p2-2-2-|-3--3-5-3-2-2-2-3p2-2-2----|
|--------------------3-3-|--------------------3-3----|
|------------------------|---------------------------|
|
| H          H             H          H
|------------------------|---------------------------|
|------------------------|---------------------------|
|------------------------|---------------------------|
|-7----------5-----------|-7----------5--------------|
|-5----------3-----------|-5----------3--------------|
|------------------------|---------------------------|


 Section J
  Q=160
  D5                                F5
  S S S S S S S S S S S S S S S S   S S S S S S S S S S S S S S S S
|---------------------------------|---------------------------------|
|---------------------------------|---------------------------------|
|-------------------------0-0-0-0-|-2-2-2-2-------------------------|
|-0-0-0-0-3-3-3-3-2-2-2-2---------|---------3-3-3-3-2-2-2-2---------|
|---------------------------------|-------------------------3-3-3-3-|
|---------------------------------|---------------------------------|
|
| W                                 W
|---------------------------------|---------------------------------|
|---------------------------------|---------------------------------|
|---------------------------------|---------------------------------|
|-0-------------------------------|-3-------------------------------|
|-0-------------------------------|-3-------------------------------|
|---------------------------------|-1-------------------------------|


  Bb5                               A5
  S S S S S S S S S S S S S S S S   S S S S S S S S S S S S S S S S
|---------------------------------|------------------------------------|
|---------------------------------|------------------------------------|
|-------------------------0-0-0-0-|-2-2-2-2----------------------------|
|-0-0-0-0-3-3-3-3-2-2-2-2---------|---------3-3-3-3-2-2-2-2------------|
|---------------------------------|-------------------------3-3-3-3----|
|---------------------------------|------------------------------------|
|
| W                                 W
|---------------------------------|------------------------------------|
|---------------------------------|------------------------------------|
|-3-------------------------------|-2----------------------------------|
|-3-------------------------------|-2----------------------------------|
|-1-------------------------------|-0----------------------------------|
|---------------------------------|------------------------------------|


  D5                        F5
  |-3-| |-3-| |-3-| |-3-|   |-3-| |-3-| |-3-| |-3-|
  E E E E E E E E E E E E   E E E E E E E E E E E E
|-------------------------|-------------------------|
|-------------------------|-------------------------|
|-------------------0-0-0-|-2-2-2-------------------|
|-0-0-0-3-3-3-2-2-2-------|-------3-3-3-2-2-2-------|
|-------------------------|-------------------3-3-3-|
|-------------------------|-------------------------|
|
| PM-------------------------------------------------
| |-3-| |-3-| |-3-| |-3-|   |-3-| |-3-| |-3-| |-3-|
| E E E E E E E E E E E E   E E E E E E E E E E E E
|-------------------------|-------------------------|
|-------------------------|-------------------------|
|-------------------------|-------------------------|
|-0-0-0-0-0-0-0-0-0-0-0-0-|-------------------------|
|-0-0-0-0-0-0-0-0-0-0-0-0-|-3-3-3-3-3-3-3-3-3-3-3-3-|
|-------------------------|-1-1-1-1-1-1-1-1-1-1-1-1-|


  Bb5                       F5 E5 D5
  |-3-| |-3-| |-3-| |-3-|
  E E E E E E E E E E E E   Q  Q  H
|-------------------------|------------|
|-------------------------|------------|
|-------------------0-0-0-|------------|
|-0-0-0-3-3-3-2-2-2-------|-3--2--0----|
|-------------------------|------------|
|-------------------------|------------|
|
|-----------------------|
| |-3-| |-3-| |-3-| |-3-|
| E E E E E E E E E E E E   Q  Q  H
|-------------------------|------------|
|-------------------------|------------|
|-------------------------|------------|
|-3-3-3-3-3-3-3-3-3-3-3-3-|-3--2--0----|
|-1-1-1-1-1-1-1-1-1-1-1-1-|-3--2--0----|
|-------------------------|-1--0-------|


   Section K
    D5              F5      E5        D5              F5      E5
    S S S S S S S S S S S S S S S S   S S S S S S S S S S S S S S S S
||----------------------------------|---------------------------------|
||o---------------------------------|---------------------------------|
||----------------------------------|---------------------------------|
||----------7-7---------7-7-5-5-----|---------7-7---------7-7-5-5-----|
||o-5-5-8-8-----5-5-8-8---------7-7-|-5-5-8-8-----5-5-8-8---------7-7-|
||----------------------------------|---------------------------------|
|
|       PM--------|     PM|     PM|       PM--------|     PM|     PM|
|   E   S S S S S S E   S S E   S S   E   S S S S S S E   S S S S S S
||----------------------------------|---------------------------------|
||o---------------------------------|---------------------------------|
||----------------------------------|---------------------------------|
||--0-------------------------------|-0-------------------------------|
||o-0---0-0-0-0-0-0-3-------2-------|-0---0-0-0-0-0-0-3---------------|
||------------------1---1-1-0---0-0-|-----------------1---1-1-1-1-1-1-|


  D5              F5      E5        Bb5             C5
  S S S S S S S S S S S S S S S S   S S S S S S S S S S S S Q
|---------------------------------|-------------------------------------||
|---------------------------------|------------------------------------o||
|---------------------------------|-------------------------------------||
|---------7-7---------7-7-5-5-----|---------7-7---------7-7-5-----------||
|-5-5-8-8-----5-5-8-8---------7-7-|-5-5-8-8-----5-5-8-8----------------o||
|---------------------------------|-------------------------------------||
|
|     PM--------|     PM|     PM|       PM--------|     PM--------|
| E   S S S S S S E   S S E   S S   E   S S S S S S E   S S S S S S
|---------------------------------|-------------------------------------||
|---------------------------------|------------------------------------o||
|---------------------------------|-------------------------------------||
|-0-------------------------------|-3---------------5-------------------||
|-0---0-0-0-0-0-0-3-------2-------|-1---1-1-1-1-1-1-3---3-3-3-3-3-3----o||
|-----------------1---1-1-0---0-0-|-------------------------------------||


    A5                C5        B5        A5                C5        B5
    S S  S  S S S S S  S  S S S S S S S   S S  S  S S S S S  S  S S S S S S S
||--------------------------------------|-------------------------------------|
||o-------------------------------------|-------------------------------------|
||------------9-9-----------9-9-7-7-----|-----------9-9-----------9-9-7-7-----|
||--7-7-10-10-----7-7-10-10---------9-9-|-7-7-10-10-----7-7-10-10---------9-9-|
||o-------------------------------------|-------------------------------------|
||--------------------------------------|-------------------------------------|
|
|        PM---------|       PM|     PM|        PM---------|       PM|     PM|
|   E    S  S S S S S  E    S S E   S S   E    S  S S S S S  E    S S S S S S
||--------------------------------------|-------------------------------------|
||o-------------------------------------|-------------------------------------|
||--------------------------------------|-------------------------------------|
||--2------------------5--------5-------|-2------------------5----------------|
||o-0----0--0-0-0-0-0--3----3-3-2---2-2-|-0----0--0-0-0-0-0--3----3-3-3-3-3-3-|
||--------------------------------------|-------------------------------------|


  A5                C5        B5        F5                G5
  S S  S  S S S S S  S  S S S S S S S   S S  S  S S S S S  S  S S S Q
|-------------------------------------|-----------------------------------------||
|-------------------------------------|----------------------------------------o||
|-----------9-9-----------9-9-7-7-----|-----------9-9-----------9-9-7-----------||
|-7-7-10-10-----7-7-10-10---------9-9-|-7-7-10-10-----7-7-10-10-----------------||
|-------------------------------------|----------------------------------------o||
|-------------------------------------|-----------------------------------------||
|
|      PM---------|       PM|     PM|        PM---------|       PM--------|
| E    S  S S S S S  E    S S E   S S   E    S  S S S S S  E    S S S S S S
|-------------------------------------|-----------------------------------------||
|-------------------------------------|----------------------------------------o||
|-------------------------------------|-----------------------------------------||
|-2------------------5--------5-------|-----------------------------------------||
|-0----0--0-0-0-0-0--3----3-3-2---2-2-|-3------------------5-------------------o||
|-------------------------------------|-1----1--1-1-1-1-1--3----3-3-3-3-3-3-----||


             H.=H
  A5
  W          +W
|----------|--------|
|----------|--------|
|----------|--------|
|-7--------|-(7)----|
|----------|--------|
|----------|--------|
|
| W          +W
|----------|--------|
|----------|--------|
|-2--------|-(2)----|
|-2--------|-(2)----|
|-0--------|-(0)----|
|----------|--------|


 Section L [Outro]
  Q=80
  Gtr I
   E  S  S  E  E  S  S  E  E  E    E  S  S  E  E  S  S  E  Q
|----------12-12-10-12----------|----------12-12-10-12--------|
|-10-10-13-------------13-12-12-|-10-10-13-------------13-12--|
|-------------------------------|-----------------------------|
|-------------------------------|-----------------------------|
|-------------------------------|-----------------------------|
|-------------------------------|-----------------------------|


   E  S  S  E  E  S  S  E  E  E    E  S  S  E  E  S  S  E  Q
|----------12-12-10-12----------|----------12-12-10-12---------|
|-10-10-13-------------13-12-12-|-10-10-13-------------13-12---|
|-------------------------------|------------------------------|
|-------------------------------|------------------------------|
|-------------------------------|------------------------------|
|-------------------------------|------------------------------|


  A5       E5    F5       G5      A5       E5    F5       G5
  Gtr I
   E  S  S  E  E  S  S  E  E  E    E  S  S  E  E  S  S  E  Q
|----------12-12-10-12----------|----------12-12-10-12--------|
|-10-10-13-------------13-12-12-|-10-10-13-------------13-12--|
|-------------------------------|-----------------------------|
|-------------------------------|-----------------------------|
|-------------------------------|-----------------------------|
|-------------------------------|-----------------------------|
|
| Gtr II
|  E  S  S  E  E  S  S  E  E  E    E  S  S  E  E  S  S  E  Q
|-------------------------------|-----------------------------|
|-------------------------------|-----------------------------|
|-----------9--9--7--9----------|-----------9--9--7--9--------|
|--7--7-10-------------10--9--9-|--7--7-10-------------10--9--|
|-------------------------------|-----------------------------|
|-------------------------------|-----------------------------|
|
| Gtr III
|  E  E     E  E  E     E  E  E    E  E     E  E  E     E  Q
|-------------------------------|-----------------------------|
|-------------------------------|-----------------------------|
|--2--2-------------------------|--2--2-----------------------|
|--2--2-----2--2--3-----3--5--5-|--2--2-----2--2--3-----3--5--|
|--0--0-----2--2--3-----3--5--5-|--0--0-----2--2--3-----3--5--|
|-----------0--0--1-----1--3--3-|-----------0--0--1-----1--3--|


  A5       E5    F5       G5      A5       E5    F5       G5
   E  S  S  E  E  S  S  E  E  E    E  S  S  E  E  S  S  E  Q
|----------12-12-10-12----------|----------12-12-10-12---------|
|-10-10-13-------------13-12-12-|-10-10-13-------------13-12---|
|-------------------------------|------------------------------|
|-------------------------------|------------------------------|
|-------------------------------|------------------------------|
|-------------------------------|------------------------------|
|
|  E  S  S  E  E  S  S  E  E  E    E  S  S  E  E  S  S  E  Q
|-------------------------------|------------------------------|
|-------------------------------|------------------------------|
|-----------9--9--7--9----------|-----------9--9--7--9---------|
|--7--7-10-------------10--9--9-|--7--7-10-------------10--9---|
|-------------------------------|------------------------------|
|-------------------------------|------------------------------|
|
|  E  E     E  E  E     E  E  E    E  E     E  E  E     E  Q
|-------------------------------|------------------------------|
|-------------------------------|------------------------------|
|--2--2-------------------------|--2--2------------------------|
|--2--2-----2--2--3-----3--5--5-|--2--2-----2--2--3-----3--5---|
|--0--0-----2--2--3-----3--5--5-|--0--0-----2--2--3-----3--5---|
|-----------0--0--1-----1--3--3-|-----------0--0--1-----1--3---|


  A5                            G5
   E  S  S  E  E  S  S  E  Q     E  S  S  E  E  S  S  E  Q
|----------12-12-10-12--------|----------12-12-10-12--------|
|-10-10-13-------------13-12--|-10-10-13-------------13-12--|
|-----------------------------|-----------------------------|
|-----------------------------|-----------------------------|
|-----------------------------|-----------------------------|
|-----------------------------|-----------------------------|
|
|  E  S  S  E  E  S  S  E  Q     E  S  S  E  E  S  S  E  Q
|-----------------------------|-----------------------------|
|-----------------------------|-----------------------------|
|-----------9--9--7--9--------|-----------9--9--7--9--------|
|--7--7-10-------------10--9--|--7--7-10-------------10--9--|
|-----------------------------|-----------------------------|
|-----------------------------|-----------------------------|
|
|  W                             W
|-----------------------------|-----------------------------|
|-----------------------------|-----------------------------|
|--2--------------------------|-----------------------------|
|--2--------------------------|--5--------------------------|
|--0--------------------------|--5--------------------------|
|-----------------------------|--3--------------------------|


                                 H.=H
  F5                       E5    D5             E5       E/G#
   E   S  S  E  E  S  S  E  Q     E  S  S  E  E  S  S  E  Q
|-----------12-12-10-12--------|----------12-12-10-12----------|
|-10--10-13-------------13-12--|-10-10-13-------------13-12----|
|------------------------------|-------------------------------|
|------------------------------|-------------------------------|
|------------------------------|-------------------------------|
|------------------------------|-------------------------------|
|
|  E   S  S  E  E  S  S  E  Q     E  S  S  E  E  S  S  E  Q
|------------------------------|-------------------------------|
|------------------------------|-------------------------------|
|------------9--9--7--9--------|-----------9--9--7--9----------|
|--7---7-10-------------10--9--|--7--7-10-------------10--9----|
|------------------------------|-------------------------------|
|------------------------------|-------------------------------|
|
|  H.                       Q     H              Q        E E
|------------------------------|-------------------------------|
|------------------------------|-------------------------------|
|------------------------------|-------------------------------|
|--3------------------------2--|--0--------------2-------------|
|--3------------------------2--|--0--------------2--------2-2--|
|--1------------------------0--|-----------------0--------4-4--|


  Am
    W           +W
|-^17--------|-(17)----*|
|-^17--------|-(17)----*|
|-^17--------|-(17)----*|
|-^19--------|-(19)----*|
|------------|---------*|
|------------|---------*|
|
|   W           +W
|------------|---------*|
|------------|---------*|
|------------|---------*|
|---7--------|--(7)----*|
|------------|---------*|
|------------|---------*|
|
|   W           +W
|------------|---------*|
|------------|---------*|
|------------|---------*|
|---7--------|--(7)----*|
|---7--------|--(7)----*|
|---5--------|--(5)----*|



Duration Legend
---------------
W - whole; H - half; Q - quarter; E - 8th; S - 16th; T - 32nd; X - 64th; a - acciaccatura
+ - note tied to previous; . - note dotted; .. - note double dotted
Uncapitalized letters represent notes that are staccato (1/2 duration)
Irregular groupings are notated above the duration line
Duration letters will always appear directly above the note/fret number it represents the
duration for.  Duration letters with no fret number below them represent rests.  Multi-
bar rests are notated in the form Wxn, where n is the number of bars to rest for.  Low
melody durations appear below the staff

Tablature Legend
----------------
 h   - hammer-on
 p   - pull-off
 b   - bend
 pb  - pre-bend
 r   - bend release (if no number after the r, then release immediately)
 /\  - slide into or out of (from/to "nowhere")
 s   - legato slide
 S   - shift slide
 - natural harmonic
[n]  - artificial harmonic
n(n) - tapped harmonic
 ~   - vibrato
 tr  - trill
 T   - tap
 TP  - trem. picking
 PM  - palm muting
\n/  - tremolo bar dip; n = amount to dip
 \n  - tremolo bar down
 n/  - tremolo bar up
/n\  - tremolo bar inverted dip
 =   - hold bend; also acts as connecting device for hammers/pulls
 <> - volume swell (louder/softer)
 x   - on rhythm slash represents muted slash
 o   - on rhythm slash represents single note slash

Misc Legend
-----------
 |  - bar
||  - double bar
||o - repeat start
o|| - repeat end
*|  - double bar (ending)
 :  - bar (freetime)
 $  - Segno
 &  - Coda
Tempo markers -  = BPM(8/16=s8/s16), where s8 = swing 8ths, s16 = swing 16ths

Tap to rate this tab
 
# A B C D E F G H I J K L M N O P Q R S T U V W X Y Z