Song name
# A B C D E F G H I J K L M N O P Q R S T U V W X Y Z

Ensiferum - White Storm tab

Ensiferum - White Storm:

Intro
|---------------------------------------------------------------------| 
|------------------88888888-77777777-1010101010101010-88888888-7777---| 
|99999999-88888888-77777777-77777777-9-9-9-9-9-9-9-9--77777777-7777---| 
|99999999-88888888-55555555-00000000-7-7-7-7-7-7-7-7--55555555-0000---| 
|77777777-66666666----------------------------------------------------| 
|---------------------------------------------------------------------| 
  
|---------------------------|
|---------------------------|
|99-88-99999999-------------|
|99-88-99999999-------------|
|77-66-77777777-------------|
|---------------------------| x3

|---------------------------------------------------------------------|
|------------------8xx8xx8x-7xx7xx7x-10xx10xx10x-8xx8xx8x-7xx7--------|
|9xx9xx9x-8xx8xx8x-7xx7xx7x-7xx7xx7x-9-xx9-xx9-x-8xx8xx8x-7xx7--------|
|9xx9xx9x-8xx6xx6x-5xx5xx5x-0xx0xx0x-7-xx7-xx7-x-5xx5xx5x-0xx0--------|
|7xx7xx7x-6xx6xx6x----------------------------------------------------|
|---------------------------------------------------------------------|

|---------------------------|
|---------------------------|
|9xx-8xx-9------------------|
|9xx-8xx-9------------------|
|7xx-6xx-7------------------|
|---------------------------|

|---------------------------------------------------------------------| 
|------------------88888888-77777777-1010101010101010-88888888-7777---| 
|99999999-88888888-77777777-77777777-9-9-9-9-9-9-9-9--77777777-7777---| 
|99999999-88888888-55555555-00000000-7-7-7-7-7-7-7-7--55555555-0000---| 
|77777777-66666666----------------------------------------------------| 
|---------------------------------------------------------------------| 
  
|---------------------------|
|---------------------------|
|99-88-99999999-------------|
|99-88-99999999-------------|
|77-66-77777777-------------|
|---------------------------|

   *let chords ring*
|---------------------------|
|---------------------------|
|9----11----12----7---------|
|9----11----12----7---------|
|7----9-----10----5---------|
|---------------------------| x2
Tap to rate this tab
# A B C D E F G H I J K L M N O P Q R S T U V W X Y Z