Song name
# A B C D E F G H I J K L M N O P Q R S T U V W X Y Z

Ensiferum - Token Of Time tab

This all I could figure out so far. I combined several guitar tabs, and wrote some by
Hope this helps anyone else pissed off with the other tab that's incorrect and circulating
tab sites.

e|--------------------3-3-----|
B|--------------------3-3-2-2-|
G|--------------------0-0-2-2-|
D|---2-----2-----2----0-0-2-2-|INTRO X4
A|---2-----2-----2----2-2-0-0-|
E|-0-0-000-0-000-0-00-3-3-----|

On the fourth time through the intro, you play this (see below);

Verse:
e|----------------------------------------------|
B|----------------------------------------------|
G|4----------------------------------4----------|
D|--7-5-7-4----------------------------7-5-7-4--| x4
A|----------7----5p4h5-----5p4h5---------------7|
E|-------------7-------7-7-------7-7------------|

e|-------------------------------------------------------------------|
B|----------------------7p5---5--------------------------------------|
G|--7p6h7-----9p7h9-6-6-----7---6---7p6h7-----9p7h9-6-6-6h7h9-7p6----|
D|9-------9-9---------------------9-------9-9---------------------7p9| x2
A|-------------------------------------------------------------------|
E|-------------------------------------------------------------------|

For the part at 1:16, go to this link and scroll to the middle of the page or so: 
http://www.911tabs.com/link/?3950430
Tap to rate this tab
 
# A B C D E F G H I J K L M N O P Q R S T U V W X Y Z