Song name
# A B C D E F G H I J K L M N O P Q R S T U V W X Y Z

Ensiferum - Eternal Wait tab

|--------3-------------------------|
|--4-4-6-4-----4-3-3-6-4-3-4-3-----|
|--5-------3-----3-------------5-4-|
|------------5---------------------|
|--3-----6-------------3-----------|
|----------------6-----------------|

|--------3-------------------------|
|--4-4-6-4-----4-3-3-6-4-3-4-3-----|
|--5-------3-----3-------------5-4-|
|------------5---------------------|
|--3-----6-------------3-----------|
|----------------6-----------------|
Tap to rate this tab
# A B C D E F G H I J K L M N O P Q R S T U V W X Y Z