Song name
# A B C D E F G H I J K L M N O P Q R S T U V W X Y Z

Ensiferum - Token Of Time tab

I wanted to learn this solo, because it's the one of the most beautifull solos i've ever
heard, but on the net there was no good tab's for it, and i saw a lot of people ask for
it, so I slowed the song with my VLC media player and tried to learn it by ear, and this 
is 95-100% percent accurate!

Try to play it, see for yourself and enjoy the music!

P.S. this is my first time doing tab, so if it is clumsy, sorry!

|-----------------------7------------------------7--------------------|
|-----7h8-----10-8--7h8----10h12p8--7--8h10p8p7-----10-8-7----7-8-10--|
|--9------9-------------------------------------------------9---------|
|---------------------------------------------------------------------|
|---------------------------------------------------------------------|
|---------------------------------------------------------------------|


|-7--10p7---7--/10-10--12-10---------------------------------12-10-8-|
|--------10------------------13-12-10-12-13--13-12-10-12-13----------|
|-------------------------------------------(picking faster..........|
|--------------------------------------------------------------------|
|--------------------------------------------------------------------|
|--------------------------------------------------------------------|

                       Sweep Part
|----------------------|----------------10-15-10------------- -------10-|
|-12-10-8-10-12~~~~~~--|-------------12----------12---------------10----|
|----------------------|----------12----------------12---------11-------|
|----------------------|-------12----------------------12---12----------|
|----------------------|-10-14----------------------------14------------|
|----------------------|------------------------------------------------|


|--14-10-----------17-14----------------------12-17-12--------12-19-15----|
|--------10-------------15------------------13---------13---13---------17-|
|----------11-------------14--------------14-------------14---------------|
|------------12--------------16---------14--------------------------------|
|---------------12--------------17-12-15----------------------------------|
|-------------------------------------------------------------------------|

                    End part
|-------15-19~~~~--|---------------------------------------------------|
|----17------------|---------------------------------------------------|
|-16---------------|-----------------------14-16-17----------14-16-17--|
|------------------|--------------14-16-17----------14-16-17-----------|
|------------------|-----14-15-17--------------------------------------|
|------------------|---------------------------------------------------|


|----------14-15-17-19-17-15----------14-15-17-15-14--------(19)--|
|-15-17-19-------------------19-17-15----------------17-15---17---|
|----------------------------------------------------------16-----|
|-----------------------------------------------------------------|
|-----------------------------------------------------------------|
|-----------------------------------------------------------------|

This End part is played with two guitars to create a harmony, so I tabbed here the
guitar that I can hear better, and since you can only play one track at a time you can end
the solo the way that harmony ends!

Hope it is good, enjoy!
Tap to rate this tab
# A B C D E F G H I J K L M N O P Q R S T U V W X Y Z