Song name
# A B C D E F G H I J K L M N O P Q R S T U V W X Y Z

Ensiferum - Eternal Wait tab

                   Eternal Wait                                   


                                                                       Ensiferum
Rhythm Guitar



      Cm              G5              D5              C5       B5      
      ^               ^               ^               ^        ^       
      H.              H.              H.              H        Q     4x
E||----------------|---------------|---------------|-----------------||
B||---1------------|---------------|--3------------|-----------------||
G||*--0------------|---------------|--2------------|--5--------4----*||
D||*--1------------|--5------------|--0------------|--5--------4----*||
A||---3------------|--5------------|---------------|--3--------2-----||
E||----------------|--3------------|---------------|-----------------||


  C5              C5              G5              D5            
  ^               ^               ^               ^             
  H.              H.              H.              H.            
---------------|---------------|---------------|---------------|
---------------|---------------|---------------|--3------------|
--5------------|--5------------|---------------|--2------------|
--5------------|--5------------|--5------------|--0------------|
--3------------|--3------------|--5------------|---------------|
---------------|---------------|--3------------|---------------|


  C5       B5      C5              G5              D5            
  ^        ^       ^               ^               ^             
  H        Q       H.              H.              H.            
----------------|---------------|---------------|---------------|
----------------|---------------|---------------|--3------------|
--5--------4----|--5------------|---------------|--2------------|
--5--------4----|--5------------|--5------------|--0------------|
--3--------2----|--3------------|--5------------|---------------|
----------------|---------------|--3------------|---------------|


  C5       B5      C5              G5              D5            
  ^        ^       ^               ^               ^             
  H        Q       H.              H.              H.            
----------------|---------------|---------------|---------------|
----------------|---------------|---------------|--3------------|
--5--------4----|--5------------|---------------|--2------------|
--5--------4----|--5------------|--5------------|--0------------|
--3--------2----|--3------------|--5------------|---------------|
----------------|---------------|--3------------|---------------|


  C5       B5      C5              G5              D5            
  ^        ^       ^               ^               ^             
  H        Q       H.              H.              H.            
----------------|---------------|---------------|---------------|
----------------|---------------|---------------|--3------------|
--5--------4----|--5------------|---------------|--2------------|
--5--------4----|--5------------|--5------------|--0------------|
--3--------2----|--3------------|--5------------|---------------|
----------------|---------------|--3------------|---------------|


  C5              D#5             D#5             D#5             D#5           
  ^               ^               ^               ^               ^             
  H.              H.              H.              H.              H.            
---------------|---------------|---------------|---------------|---------------|
---------------|---------------|---------------|---------------|---------------|
--5------------|--8------------|--8------------|--8------------|--8------------|
--5------------|--8------------|--8------------|--8------------|--8------------|
--3------------|--6------------|--6------------|--6------------|--6------------|
---------------|---------------|---------------|---------------|---------------|


  D#5             D#5             D#5             D#5             D#5           
  ^               ^               ^               ^               ^             
  H.              H.              H.              H.              H.            
---------------|---------------|---------------|---------------|---------------|
---------------|---------------|---------------|---------------|---------------|
--8------------|--8------------|--8------------|--8------------|--8------------|
--8------------|--8------------|--8------------|--8------------|--8------------|
--6------------|--6------------|--6------------|--6------------|--6------------|
---------------|---------------|---------------|---------------|---------------|


  D#5             D#5             D#5             D#5             D#5           
  ^               ^               ^               ^               ^             
  H.              H.              H.              H.              H.            
---------------|---------------|---------------|---------------|---------------|
---------------|---------------|---------------|---------------|---------------|
--8------------|--8------------|--8------------|--8------------|--8------------|
--8------------|--8------------|--8------------|--8------------|--8------------|
--6------------|--6------------|--6------------|--6------------|--6------------|
---------------|---------------|---------------|---------------|---------------|


  E  E  E  E  E  E     Q     Q    Q         H.              H.            
--------------------|------------------||----------------|---------------|
--------------------|------------------||----------------|---------------|
--------------------|------------------||*---------------|---------------|
--5--5--5--5--5--5--|--5----10----3----||*--5------------|---------------|
--3--3--3--3--3--3--|--3-----8----1----||---3------------|--5------------|
--------------------|------------------||----------------|--3------------|


  H.                                                                    
---------------|-------|---------------|---------------|---------------|
---------------|-------|---------------|---------------|---------------|
---------------|-------|---------------|---------------|---------------|
--7------------|-------|---------------|---------------|---------------|
--5------------|-------|---------------|---------------|---------------|
---------------|-------|---------------|---------------|---------------|


--------||-------||--------|-------|-------|-------|-------|-------|-------|
--------||-------||--------|-------|-------|-------|-------|-------|-------|
-------*||-------||*-------|-------|-------|-------|-------|-------|-------|
-------*||-------||*-------|-------|-------|-------|-------|-------|-------|
--------||-------||--------|-------|-------|-------|-------|-------|-------|
--------||-------||--------|-------|-------|-------|-------|-------|-------|


-------|-------|-------|-------|--------||--------|-------|-------|-------|
-------|-------|-------|-------|--------||--------|-------|-------|-------|
-------|-------|-------|-------|-------*||*-------|-------|-------|-------|
-------|-------|-------|-------|-------*||*-------|-------|-------|-------|
-------|-------|-------|-------|--------||--------|-------|-------|-------|
-------|-------|-------|-------|--------||--------|-------|-------|-------|


-------|-------|-------|--------||-------|-------|-------|-------|-------|
-------|-------|-------|--------||-------|-------|-------|-------|-------|
-------|-------|-------|-------*||-------|-------|-------|-------|-------|
-------|-------|-------|-------*||-------|-------|-------|-------|-------|
-------|-------|-------|--------||-------|-------|-------|-------|-------|
-------|-------|-------|--------||-------|-------|-------|-------|-------|


-------|-------|-------|-------|-------|-------|-------|-------|-------|-------|
-------|-------|-------|-------|-------|-------|-------|-------|-------|-------|
-------|-------|-------|-------|-------|-------|-------|-------|-------|-------|
-------|-------|-------|-------|-------|-------|-------|-------|-------|-------|
-------|-------|-------|-------|-------|-------|-------|-------|-------|-------|
-------|-------|-------|-------|-------|-------|-------|-------|-------|-------|


-------||--------|-------|-------|--------||--------|-------|-------|--------||
-------||--------|-------|-------|--------||--------|-------|-------|--------||
-------||*-------|-------|-------|-------*||*-------|-------|-------|-------*||
-------||*-------|-------|-------|-------*||*-------|-------|-------|-------*||
-------||--------|-------|-------|--------||--------|-------|-------|--------||
-------||--------|-------|-------|--------||--------|-------|-------|--------||


-------|-------|-------|-------|-------|-------|-------|-------|-------|-------|
-------|-------|-------|-------|-------|-------|-------|-------|-------|-------|
-------|-------|-------|-------|-------|-------|-------|-------|-------|-------|
-------|-------|-------|-------|-------|-------|-------|-------|-------|-------|
-------|-------|-------|-------|-------|-------|-------|-------|-------|-------|
-------|-------|-------|-------|-------|-------|-------|-------|-------|-------|


-------|-------|-------|-------|-------|-------|-------|-------|-------|-------|
-------|-------|-------|-------|-------|-------|-------|-------|-------|-------|
-------|-------|-------|-------|-------|-------|-------|-------|-------|-------|
-------|-------|-------|-------|-------|-------|-------|-------|-------|-------|
-------|-------|-------|-------|-------|-------|-------|-------|-------|-------|
-------|-------|-------|-------|-------|-------|-------|-------|-------|-------|


-------|-------|-------|-------|-------|-------|-------|-------|-------|-------|
-------|-------|-------|-------|-------|-------|-------|-------|-------|-------|
-------|-------|-------|-------|-------|-------|-------|-------|-------|-------|
-------|-------|-------|-------|-------|-------|-------|-------|-------|-------|
-------|-------|-------|-------|-------|-------|-------|-------|-------|-------|
-------|-------|-------|-------|-------|-------|-------|-------|-------|-------|


-------|-------|-------|-------|-------|-------|
-------|-------|-------|-------|-------|-------|
-------|-------|-------|-------|-------|-------|
-------|-------|-------|-------|-------|-------|
-------|-------|-------|-------|-------|-------|
-------|-------|-------|-------|-------|-------|


   Guitar Solo                                                                
   Q           S  S  S  S  Q       Q     Q     Q        E   E   E   E   Q     
--------------------------------|-------------------|------------------------|
--------------------------------|-------------------|------------------------|
--12----------12-13-12-10-12----|--L----------------|------------------------|
--------------------------------|-------10----13----|--12--13--12--10--------|
--------------------------------|-------------------|------------------13----|
--------------------------------|-------------------|------------------------|


  Q     Q     Q        Q     E   E   E   E      E   E   Q     Q     
-------------------|------------------------|----------------------|
-------------------|------------------------|----------------------|
-------------------|--------------------12--|--10------------------|
-------------------|--10----10--12--13------|------13--12----------|
--L----10----13----|------------------------|----------------13----|
-------------------|------------------------|----------------------|


   Q.      S S S S S  S     S  S  S  S  S  S  S S S S S  S  
-------------------6-10-|--13-10----------------------6-10-|
-----------------8------|--------11-----------------8------|
---------------7--------|-----------10------------7--------|
-------------8----------|--------------12-------8----------|
--10------10------------|-----------------13-10------------|
------------------------|----------------------------------|


       |---3---|                    |---3---|                 
   E   S   S   S  H             E   S   S   S E  E  E.    S   
--11--13p-11p-10-11~--------|--11--10h-11p-10-8--6--8S---(3)-|
----------------------------|--------------------------------|
----------------------------|--------------------------------|
----------------------------|--------------------------------|
----------------------------|--------------------------------|
----------------------------|--------------------------------|


   Something like this.                                            
   |-----------3----------| |--3--| |-3-|  |-3-| |--3--|  |--3--|  
   S                    S S S  S  S S S S  S S S S S   S  S  S  S  
----------------------------8-10p-8-----8-13-8-----8h-10-13-10p-8-|
--------------------------9---------9-9--------9-9----------------|
-----------------------10-----------------------------------------|
--12--------------------------------------------------------------|
------------------------------------------------------------------|
------------------------------------------------------------------|


  |--3-|                     3                  3    
  S S  S  H           E      W                  E    
----8-13-15br--------13--|--15S----------------(7)--|
--9----------------------|--------------------------|
-------------------------|--------------------------|
-------------------------|--------------------------|
-------------------------|--------------------------|
-------------------------|--------------------------|


   S   S  S  S  S  S  S  S  S  S  S  S     S   S  S  S  S  S  S  S  E.     S   
--15p-11----------------------------11-|--13p-10----------------10-11S---(15)-|
---------13----------------------13----|---------11----------11---------------|
------------12----------------12-------|------------10----10------------------|
---------------13----------13----------|---------------12---------------------|
------------------15----15-------------|--------------------------------------|
---------------------15----------------|--------------------------------------|


                                              |---3---|                   
   S  S  S  S  S  S  S  S  S  S  S  S     E   S   S   S     H.            
--15-16-15-13-------------------------|-----------------|----------------|
--------------16-15-13----------------|--13--11h-13p-11-|--13------------|
-----------------------15----------15-|-----------------|----------------|
--------------------------17-15-17----|-----------------|----------------|
--------------------------------------|-----------------|----------------|
--------------------------------------|-----------------|----------------|


  H.                                                                            
---------------|-------|-------|-------|-------|-------|-------|-------|-------|
--L------------|-------|-------|-------|-------|-------|-------|-------|-------|
---------------|-------|-------|-------|-------|-------|-------|-------|-------|
---------------|-------|-------|-------|-------|-------|-------|-------|-------|
---------------|-------|-------|-------|-------|-------|-------|-------|-------|
---------------|-------|-------|-------|-------|-------|-------|-------|-------|


-------|-------|-------|-------|-------|-------|-------|-------|-------|-------|
-------|-------|-------|-------|-------|-------|-------|-------|-------|-------|
-------|-------|-------|-------|-------|-------|-------|-------|-------|-------|
-------|-------|-------|-------|-------|-------|-------|-------|-------|-------|
-------|-------|-------|-------|-------|-------|-------|-------|-------|-------|
-------|-------|-------|-------|-------|-------|-------|-------|-------|-------|


-------|-------|-------|-------||--------|-------|-------|-------|-------|
-------|-------|-------|-------||--------|-------|-------|-------|-------|
-------|-------|-------|-------||*-------|-------|-------|-------|-------|
-------|-------|-------|-------||*-------|-------|-------|-------|-------|
-------|-------|-------|-------||--------|-------|-------|-------|-------|
-------|-------|-------|-------||--------|-------|-------|-------|-------|


-------|-------|--------||-------|-------|-------|-------|-------|-------|
-------|-------|--------||-------|-------|-------|-------|-------|-------|
-------|-------|-------*||-------|-------|-------|-------|-------|-------|
-------|-------|-------*||-------|-------|-------|-------|-------|-------|
-------|-------|--------||-------|-------|-------|-------|-------|-------|
-------|-------|--------||-------|-------|-------|-------|-------|-------|


-------|-------|-------|-------|-------|-------|-------|-------|-------|-------|
-------|-------|-------|-------|-------|-------|-------|-------|-------|-------|
-------|-------|-------|-------|-------|-------|-------|-------|-------|-------|
-------|-------|-------|-------|-------|-------|-------|-------|-------|-------|
-------|-------|-------|-------|-------|-------|-------|-------|-------|-------|
-------|-------|-------|-------|-------|-------|-------|-------|-------|-------|


-------|-------|-------|-------|-------|-------|-------|-------|-------|-------|
-------|-------|-------|-------|-------|-------|-------|-------|-------|-------|
-------|-------|-------|-------|-------|-------|-------|-------|-------|-------|
-------|-------|-------|-------|-------|-------|-------|-------|-------|-------|
-------|-------|-------|-------|-------|-------|-------|-------|-------|-------|
-------|-------|-------|-------|-------|-------|-------|-------|-------|-------|


-------|-------|-------|-------|-------|-------|-------|-------|-------|
-------|-------|-------|-------|-------|-------|-------|-------|-------|
-------|-------|-------|-------|-------|-------|-------|-------|-------|
-------|-------|-------|-------|-------|-------|-------|-------|-------|
-------|-------|-------|-------|-------|-------|-------|-------|-------|
-------|-------|-------|-------|-------|-------|-------|-------|-------|


-------||
-------||
-------||
-------||
-------||
-------||

Lead Guitar




      Q    Q    Q       Q    E  E  E  E     Q    Q    Q     
E||------------------|-------------------|-----------------|
B||------------------|-------------------|-----------------|
G||*--5----5----7----|-------------8-----|--7----7----8----|
D||*-----------------|--5----5--8--------|-----------------|
A||------------------|-------------------|-----------------|
E||------------------|-------------------|-----------------|


  E   E  E  E  E  E   4x  H.              E  E  E  E  E  E     Q    Q    Q     
----------------------||---------------|--------------------|-----------------|
----------------------||---------------|--------------------|-----------------|
--8p--5--8--5--4-----*||--5------------|--------------------|--0--------------|
---------------------*||---------------|-----------0--1--3--|-------1----1----|
----------------------||---------------|--3--2--3-----------|-----------------|
----------------------||---------------|--------------------|-----------------|


  Q    Q    Q       E  E  Q    Q       E  E  E  E  E  E     Q    Q    Q     
-----------------|------------------|--------------------|-----------------|
-----------------|------------------|--------------------|-----------------|
-----------------|------------------|--------------------|--0--------------|
--0---------0----|--1--0------------|-----------0--1--3--|-------1----1----|
-------1---------|--------3----2----|--3--2--3-----------|-----------------|
-----------------|------------------|--------------------|-----------------|


  Q    Q    Q       Q    Q    Q       E  E  E  E  E  E     Q    Q    Q     
-----------------|-----------------|--------------------|--3--------------|
-----------------|-----------------|-----------3--4--6--|-------4----4----|
-----------------|-----------------|--5--4--5-----------|-----------------|
--0---------0----|--1----3----0----|--------------------|-----------------|
-------1---------|-----------------|--------------------|-----------------|
-----------------|-----------------|--------------------|-----------------|


  Q    Q    Q       E  E  Q    Q       E  E  E  E  E  E     Q    Q    Q     
-----------------|------------------|--------------------|--3--------------|
--3---------3----|--4--3------------|-----------3--4--6--|-------4----4----|
-------3---------|--------5----4----|--5--4--5-----------|-----------------|
-----------------|------------------|--------------------|-----------------|
-----------------|------------------|--------------------|-----------------|
-----------------|------------------|--------------------|-----------------|


  Q    Q    Q       H.              Q    E  E  Q       Q    Q    Q     
-----------------|---------------|------------------|-----------------|
--3---------3----|---------------|------------------|-----------------|
-------3---------|--5------------|------------------|-----------------|
-----------------|---------------|--1----1--0-------|--1----1----0----|
-----------------|---------------|-------------3----|-----------------|
-----------------|---------------|------------------|-----------------|


  Q    E  E  Q       Q    Q    Q       Q    E  E  Q       Q    Q    Q     
------------------|-----------------|------------------|-----------------|
------------------|-----------------|------------------|-----------------|
------------------|-----------------|------------------|-----------------|
--1----1--0-------|--1----3----0----|--1----1--0-------|--1----1----0----|
-------------3----|-----------------|-------------3----|-----------------|
------------------|-----------------|------------------|-----------------|


  Q    E  E  Q       Q    Q    Q       Q    E  E  Q       Q    Q    Q     
------------------|-----------------|------------------|-----------------|
------------------|-----------------|--4----4--3-------|--4----4----3----|
------------------|-----------------|-------------5----|-----------------|
--1----1--0-------|--1----3----0----|------------------|-----------------|
-------------3----|-----------------|------------------|-----------------|
------------------|-----------------|------------------|-----------------|


  Q    E  E  Q       Q    Q    Q       Q    E  E  Q       Q    Q    Q     
------------------|-----------------|------------------|-----------------|
--4----4--3-------|--4----6----3----|--4----4--3-------|--4----4----3----|
-------------5----|-----------------|-------------5----|-----------------|
------------------|-----------------|------------------|-----------------|
------------------|-----------------|------------------|-----------------|
------------------|-----------------|------------------|-----------------|


  Q    E  E  Q       Q    Q    Q         E  E  E  E  E  E     Q    Q    Q     
------------------|-----------------||---------------------|-----------------|
--4----4--3-------|--4----6----3----||---------------------|-----------------|
-------------5----|-----------------||*--------------------|--0--------------|
------------------|-----------------||*-----------0--1--3--|-------1----1----|
------------------|-----------------||---3--2--3-----------|-----------------|
------------------|-----------------||---------------------|-----------------|


  Q    Q    Q       E  E  Q    Q       E  E  E  E  E  E     Q    Q    Q     
-----------------|------------------|--------------------|-----------------|
-----------------|------------------|--------------------|-----------------|
-----------------|------------------|--------------------|--0--------------|
--0---------0----|--1--0------------|-----------0--1--3--|-------1----1----|
-------1---------|--------3----2----|--3--2--3-----------|-----------------|
-----------------|------------------|--------------------|-----------------|


  Q    Q    Q       Q    Q    Q         H.                H.            
-----------------|------------------||---------------||----------------|
-----------------|------------------||---------------||----------------|
-----------------|-----------------*||---------------||*---------------|
--0---------0----|--1----3----0----*||---------------||*--1------------|
-------1---------|------------------||--3------------||----------------|
-----------------|------------------||---------------||----------------|


  H        Q       E  E  E  E  Q       E  E  E  E  Q       H.            
----------------|-------------------|-------------------|---------------|
----------------|-------------------|-------------------|---------------|
----------------|-------------------|-------------------|---------------|
-----------1----|--0-----0--1--0----|--0-----0--1--0----|--1------------|
--3-------------|-----3-------------|-----3-------------|---------------|
----------------|-------------------|-------------------|---------------|


  H        Q       E  E  E  E  Q       E  E  E  E  Q       H.            
----------------|-------------------|-------------------|---------------|
----------------|-------------------|-------------------|---------------|
----------------|-------------------|-------------------|---------------|
--3--------1----|--0-----0--1--0----|--0-----0--1--0----|--1------------|
----------------|-----3-------------|-----3-------------|---------------|
----------------|-------------------|-------------------|---------------|


  H        Q       Q    Q    Q       H.                 Q    Q    Q     
----------------|-----------------|----------------||------------------|
----------------|-----------------|----------------||---4---------4----|
----------------|-----------------|---------------*||*-------5---------|
--0--------0----|--1----3----1----|--0------------*||*-----------------|
----------------|-----------------|----------------||------------------|
----------------|-----------------|----------------||------------------|


  Q    Q    Q       Q    Q    Q       Q    Q    Q       Q    Q    Q     
-----------------|-----------------|-----------------|-----------------|
--3---------3----|--4---------4----|--6----3----6----|--4---------4----|
-------5---------|-------5---------|-----------------|-------5---------|
-----------------|-----------------|-----------------|-----------------|
-----------------|-----------------|-----------------|-----------------|
-----------------|-----------------|-----------------|-----------------|


  Q    Q    Q       H.              Q    E  E  E  E       E  E  E  E  E  E   
-----------------|---------------|--------------------||--------------------|
--3--------------|---------------|--------------------||--------------------|
-------5----4----|--5------------|-------------------*||--------------------|
-----------------|---------------|-------5--3--------*||-----------0--1--3--|
-----------------|---------------|-------------6--5---||--3--2--3-----------|
-----------------|---------------|--------------------||--------------------|


  Q    Q    Q       Q    Q    Q       E  E  Q    Q       E  E  E  E  E  E   
-----------------|-----------------|------------------|--------------------|
-----------------|-----------------|------------------|--------------------|
--0--------------|-----------------|------------------|--------------------|
-------1----1----|--0---------0----|--1--0------------|-----------0--1--3--|
-----------------|-------1---------|--------3----2----|--3--2--3-----------|
-----------------|-----------------|------------------|--------------------|


  Q    Q    Q       Q    Q    Q       Q    Q    Q       E  E  E  E  E  E   
-----------------|-----------------|-----------------|--------------------|
-----------------|-----------------|-----------------|-----------3--4--6--|
--0--------------|-----------------|-----------------|--5--4--5-----------|
-------1----1----|--0---------0----|--1----3----0----|--------------------|
-----------------|-------1---------|-----------------|--------------------|
-----------------|-----------------|-----------------|--------------------|


  Q    Q    Q       Q    Q    Q       E  E  Q    Q       E  E  E  E  E  E   
--3--------------|-----------------|------------------|--------------------|
-------4----4----|--3---------3----|--4--3------------|-----------3--4--6--|
-----------------|-------3---------|--------5----4----|--5--4--5-----------|
-----------------|-----------------|------------------|--------------------|
-----------------|-----------------|------------------|--------------------|
-----------------|-----------------|------------------|--------------------|


  Q    Q    Q       Q    Q    Q       H.                Q    E  E  Q     
--3--------------|-----------------|---------------||-------------------|
-------4----4----|--3---------3----|---------------||-------------------|
-----------------|-------3---------|--5------------||*------------------|
-----------------|-----------------|---------------||*--1----1--0-------|
-----------------|-----------------|---------------||--------------3----|
-----------------|-----------------|---------------||-------------------|


  Q    Q    Q       Q    E  E  Q       Q    Q    Q          Q    E  E  Q     
-----------------|------------------|------------------||-------------------|
-----------------|------------------|------------------||---4----4--3-------|
-----------------|------------------|-----------------*||*-------------5----|
--1----1----0----|--1----1--0-------|--1----3----0----*||*------------------|
-----------------|-------------3----|------------------||-------------------|
-----------------|------------------|------------------||-------------------|


  Q    Q    Q       Q    E  E  Q       Q    Q    Q         H.            
-----------------|------------------|------------------||---------------|
--4----4----3----|--4----4--3-------|--4----6----3-----||---------------|
-----------------|-------------5----|-----------------*||--5------------|
-----------------|------------------|-----------------*||---------------|
-----------------|------------------|------------------||---------------|
-----------------|------------------|------------------||---------------|


  H.              H.              H.              H.              H.            
---------------|---------------|---------------|---------------|---------------|
---------------|---------------|---------------|---------------|---------------|
--L------------|--L------------|--L------------|---------------|---------------|
---------------|---------------|---------------|---------------|---------------|
---------------|---------------|---------------|--3------------|--5------------|
---------------|---------------|---------------|---------------|---------------|


  E  E  Q    Q       H.              E  E  Q    Q       H        Q     
------------------|---------------|------------------|----------------|
------------------|---------------|------------------|----------------|
------------------|---------------|------------------|----------------|
--5--3------------|---------------|--5--3------------|----------------|
--------6----3----|--5------------|--------6----3----|--5--------5----|
------------------|---------------|------------------|----------------|


  E  E  E  E  Q       H.              H.              H.            
-------------------|---------------|---------------|---------------|
-------------------|---------------|---------------|---------------|
-------------------|---------------|--5------------|--7------------|
-----------3-------|---------------|---------------|---------------|
--6--5--6-----5----|--3------------|---------------|---------------|
-------------------|---------------|---------------|---------------|


  E  E  Q    Q       H.              E  E  Q    Q       H        Q     
------------------|---------------|------------------|----------------|
--8--6------------|---------------|--8--6------------|----------------|
--------8----5----|--7------------|--------8----5----|--7--------7----|
------------------|---------------|------------------|----------------|
------------------|---------------|------------------|----------------|
------------------|---------------|------------------|----------------|


  E  E  E  E  Q       H.              H.              H.            
-------------------|---------------|---------------|---------------|
-----------6-------|---------------|---------------|---------------|
--8--7--8-----7----|--5------------|---------------|---------------|
-------------------|---------------|---------------|---------------|
-------------------|---------------|--3------------|--5------------|
-------------------|---------------|---------------|---------------|


  E  E  Q    Q       H.              E  E  Q    Q       H        Q     
------------------|---------------|------------------|----------------|
------------------|---------------|------------------|----------------|
------------------|---------------|------------------|----------------|
--5--3------------|---------------|--5--3------------|----------------|
--------6----3----|--5------------|--------6----3----|--5--------5----|
------------------|---------------|------------------|----------------|


  E  E  E  E  Q       H.              H.              H.            
-------------------|---------------|---------------|---------------|
-------------------|---------------|---------------|---------------|
-------------------|---------------|--5------------|--7------------|
-----------3-------|---------------|---------------|---------------|
--6--5--6-----5----|--3------------|---------------|---------------|
-------------------|---------------|---------------|---------------|


  E  E  Q    Q       H.              E  E  Q    Q       H        Q     
------------------|---------------|------------------|----------------|
--8--6------------|---------------|--8--6------------|----------------|
--------8----5----|--7------------|--------8----5----|--7--------7----|
------------------|---------------|------------------|----------------|
------------------|---------------|------------------|----------------|
------------------|---------------|------------------|----------------|


  E  E  E  E  Q       H.              E  E  E  E  E  E     E  E  E  E  E  E   
-------------------|---------------|--------------------|--------------------|
-----------6-------|---------------|--------------------|--------------------|
--8--7--8-----7----|--5------------|--------------------|--------------------|
-------------------|---------------|--------------------|--------5-----------|
-------------------|---------------|--3-----3--5--6-----|--3--------8--6-----|
-------------------|---------------|--------------------|--------------------|


  E  E  E  E  E  E     E  E  E  E  E  E     E  E  E  E  E  E   
--------------------|--------------------|--------------------|
--------------------|--------------------|--------------------|
--------------------|--------------------|--------------------|
--------------------|--5-----5-----------|--------------------|
--5-----5--6--8-----|-----------8--6--5--|--3-----3--5--6-----|
--------------------|--------------------|--------------------|


  E  E  E  E  E  E     E  E  E  E  E  E     E  E  E  E  E  E   
--------------------|--------------------|--------------------|
--------------------|--------------------|--------------------|
--------------------|--------------------|--------------------|
--------5-----------|--------------------|--5-----5-----------|
--3--------8--6-----|--5-----5--6--8-----|-----------8--6--5--|
--------------------|--------------------|--------------------|


  E  E  E  E  E  E     E  E  E  E  E  E     E  E  E  E  E  E   
--------------------|--------------------|--------------------|
--------------------|--------------------|--------------------|
--------------------|--------------------|--------------------|
--------------------|--------5-----------|--------------------|
--3-----3--5--6-----|--3--------8--6-----|--5-----5--6--8-----|
--------------------|--------------------|--------------------|


  E  E  E  E  E  E     E  E  E  E  E  E     E  E  E  E  E  E   
--------------------|--------------------|--------------------|
--------------------|--------------------|--------------------|
--------------------|--------------------|--------------------|
--5-----5-----------|--------------------|--------5-----------|
-----------8--6--5--|--3-----3--5--6-----|--3--------8--6-----|
--------------------|--------------------|--------------------|


  E  E  E  E  E  E     E  E  E  E  E  E     E  E     H.            
--------------------|--------------------|--------|---------------|
--------------------|--------------------|--------|---------------|
--------------------|--------------------|--------|---------------|
--------------------|--5-----5-----------|--------|--1------------|
--5-----5--6--8-----|-----------8--6--5--|--3-----|---------------|
--------------------|--------------------|--------|---------------|


  H        Q       E  E  E  E  Q       E  E  E  E  Q       H.            
----------------|-------------------|-------------------|---------------|
----------------|-------------------|-------------------|---------------|
----------------|-------------------|-------------------|---------------|
-----------1----|--0-----0--1--0----|--0-----0--1--0----|--1------------|
--3-------------|-----3-------------|-----3-------------|---------------|
----------------|-------------------|-------------------|---------------|


  H        Q       E  E  E  E  Q       E  E  E  E  Q       H.            
----------------|-------------------|-------------------|---------------|
----------------|-------------------|-------------------|---------------|
----------------|-------------------|-------------------|---------------|
--3--------1----|--0-----0--1--0----|--0-----0--1--0----|--1------------|
----------------|-----3-------------|-----3-------------|---------------|
----------------|-------------------|-------------------|---------------|


  H        Q       Q    Q    Q       H.              H.            
----------------|-----------------|---------------|---------------|
----------------|-----------------|---------------|--4------------|
----------------|-----------------|---------------|---------------|
--0--------0----|--1----3----1----|--0------------|---------------|
----------------|-----------------|---------------|---------------|
----------------|-----------------|---------------|---------------|


  H        Q       E  E  E  E  Q       E  E  E  E  Q       H.            
----------------|-------------------|-------------------|---------------|
-----------4----|--3-----3--4--3----|--3-----3--4--3----|--4------------|
--5-------------|-----5-------------|-----5-------------|---------------|
----------------|-------------------|-------------------|---------------|
----------------|-------------------|-------------------|---------------|
----------------|-------------------|-------------------|---------------|


  H        Q       E  E  E  E  Q       E  E  E  E  Q       H.            
----------------|-------------------|-------------------|---------------|
--6--------4----|--3-----3--4--3----|--3-----3--4--3----|--4------------|
----------------|-----5-------------|-----5-------------|---------------|
----------------|-------------------|-------------------|---------------|
----------------|-------------------|-------------------|---------------|
----------------|-------------------|-------------------|---------------|


  H        Q       Q    Q    Q       H.                Q    Q    Q     
----------------|-----------------|---------------||------------------|
--3--------3----|--4----6----4----|--3------------||---4---------4----|
----------------|-----------------|---------------||*-------5---------|
----------------|-----------------|---------------||*-----------------|
----------------|-----------------|---------------||------------------|
----------------|-----------------|---------------||------------------|


  Q    Q    Q       Q    Q    Q       Q    Q    Q       Q    Q    Q     
-----------------|-----------------|-----------------|-----------------|
--3---------3----|--4---------4----|--6----3----6----|--4---------4----|
-------5---------|-------5---------|-----------------|-------5---------|
-----------------|-----------------|-----------------|-----------------|
-----------------|-----------------|-----------------|-----------------|
-----------------|-----------------|-----------------|-----------------|


  Q    Q    Q       H.              Q    E  E  E  E       E  E  E  E  E  E   
-----------------|---------------|--------------------||--------------------|
--3--------------|---------------|--------------------||--------------------|
-------5----4----|--5------------|--L----L--L--L--L--*||--------------------|
-----------------|---------------|-------5--3--------*||-----------0--1--3--|
-----------------|---------------|-------------6--5---||--3--2--3-----------|
-----------------|---------------|--------------------||--------------------|


  Q    Q    Q       Q    Q    Q       E  E  Q    Q       E  E  E  E  E  E   
-----------------|-----------------|------------------|--------------------|
-----------------|-----------------|------------------|--------------------|
--0--------------|-----------------|------------------|--------------------|
-------1----1----|--0---------0----|--1--0------------|-----------0--1--3--|
-----------------|-------1---------|--------3----2----|--3--2--3-----------|
-----------------|-----------------|------------------|--------------------|


  Q    Q    Q       Q    Q    Q       Q    Q    Q       E  E  E  E  E  E   
-----------------|-----------------|-----------------|--------------------|
-----------------|-----------------|-----------------|-----------3--4--6--|
--0--------------|-----------------|-----------------|--5--4--5-----------|
-------1----1----|--0---------0----|--1----3----0----|--------------------|
-----------------|-------1---------|-----------------|--------------------|
-----------------|-----------------|-----------------|--------------------|


  Q    Q    Q       Q    Q    Q       E  E  Q    Q       E  E  E  E  E  E   
--3--------------|-----------------|------------------|--------------------|
-------4----4----|--3---------3----|--4--3------------|-----------3--4--6--|
-----------------|-------3---------|--------5----4----|--5--4--5-----------|
-----------------|-----------------|------------------|--------------------|
-----------------|-----------------|------------------|--------------------|
-----------------|-----------------|------------------|--------------------|


  Q    Q    Q       Q    Q    Q       H.              Q    Q    Q     
--3--------------|-----------------|---------------|-----------------|
-------4----4----|--3---------3----|---------------|-----------------|
-----------------|-------3---------|--5------------|--L----L----L----|
-----------------|-----------------|---------------|-----------------|
-----------------|-----------------|---------------|-----------------|
-----------------|-----------------|---------------|-----------------|


  Q    Q    Q       Q    Q    Q       H.              H.            
-----------------|-----------------|---------------|---------------|
-----------------|-----------------|---------------|---------------|
--L----L----L----|--L----L----L----|--5------------|--7------------|
-----------------|-----------------|---------------|---------------|
-----------------|-----------------|---------------|---------------|
-----------------|-----------------|---------------|---------------|


  E  E  Q    Q       H.              E  E  Q    Q       H        Q     
------------------|---------------|------------------|----------------|
--8--6------------|---------------|--8--6------------|----------------|
--------8----5----|--7------------|--------8----5----|--7--------7----|
------------------|---------------|------------------|----------------|
------------------|---------------|------------------|----------------|
------------------|---------------|------------------|----------------|


  E  E  E  E  Q       H.              H.              H.            
-------------------|---------------|---------------|---------------|
-----------6-------|---------------|---------------|---------------|
--8--7--8-----7----|--5------------|--5------------|--7------------|
-------------------|---------------|---------------|---------------|
-------------------|---------------|---------------|---------------|
-------------------|---------------|---------------|---------------|


  E  E  Q    Q       H.              E  E  Q    Q       H        Q     
------------------|---------------|------------------|----------------|
--8--6------------|---------------|--8--6------------|----------------|
--------8----5----|--7------------|--------8----5----|--7--------7----|
------------------|---------------|------------------|----------------|
------------------|---------------|------------------|----------------|
------------------|---------------|------------------|----------------|


  E  E  E  E  Q       H.                             
-------------------|---------------|---------------||
-----------6-------|---------------|---------------||
--8--7--8-----7----|--5------------|---------------||
-------------------|---------------|---------------||
-------------------|---------------|---------------||
-------------------|---------------|---------------||




Duration Legend
---------------
W - whole
H - half
Q - quarter
E - 8th
S - 16th
T - 32nd
X - 64th
. - note dotted
|-n-|  - n-tuplets


Tablature Legend
----------------
L - tied note
x - dead note
g - grace note
(n) - ghost note
> - accentuded note
NH - natural harmonic
AH - artificial harmonic
TH - tapped harmonic
SH - semi harmonic
PH - pitch harmonic
h - hammer on
p - pull off
b - bend
br - bendRelease
pb - preBend
pbr - preBendRelease
brb - bendReleaseBend
\n/ - tremolo bar dip
\n - tremolo bar dive
-/n - tremolo bar Release up
/n\ - tremolo bar inverted dip
/n - tremolo bar return
-\n - tremolo bar Release down
S - shift slide
s - legato slide
/ -  slide into from below or out of upwards
\ -  slide into from above or out of downwards
~ - vibrato
W - wide vibrato
tr - trill
TP - tremolo picking
T - tapping
S - slap
P - pop
< - fade in
^ - brush up
v - brush down



Tap to rate this tab
 
# A B C D E F G H I J K L M N O P Q R S T U V W X Y Z