Song name
# A B C D E F G H I J K L M N O P Q R S T U V W X Y Z

Ensiferum - Warriors Quest tab

                     Hello everybody!
                
                            This is a great song!

   Intro 1      0.00-0.31
e|-------------------------------------------------------------------------|
B|-------------------------------------------------------------------------|
G|---9-------------7-------------7-------------7---------------------------|
D|-----10-9-7-9-10---10-9----7-9---10-9----7-9---10-9-7--------------------|
A|------------------------10------------10---------------------------------|
E|-------------------------------------------------------------------------|
                                                          this 3 times

e|-------------------------------------------------------------------------|
B|-------------------------------------------------------------------------|
G|---9-------------7-------------7----------------7------------------------|
D|-----10-9-7-9-10---10-9----7-9---10-9----7-9-10---9-7--------------------|
A|------------------------10------------10---------------------------------|
E|-------------------------------------------------------------------------|
                                                           this 1 time

  Intro 2      0.32-1.03
e|-------------------------------------------------------------------------|
B|-------------------------------------------------------------------------|
G|---9-----------7----------------------7----------------------------------|
D|-------7-7---10--10---9----9p7h9--10---10-9------7-----------------------|
A|------------------------10--------------------10-------------------------|
E|-------------------------------------------------------------------------|
                                                          this 4 times

                          From Alltflesk
Tap to rate this tab
# A B C D E F G H I J K L M N O P Q R S T U V W X Y Z