Song name
# A B C D E F G H I J K L M N O P Q R S T U V W X Y Z

Ensiferum - Windrider tab

                                  Windrider                                     


                                                                       Ensiferum
Rhythm



     H        E     Q    E  E  Q    E  E     Q    E  E  Q    E  E   
E||--------------|------------------------|------------------------|
B||--------------|------------------------|------------------------|
G||--------------|------------------------|------------------------|
D||--------------|--5---------------------|--5---------------------|
A||--------------|--5----------5----------|--5----------5----------|
E||--------------|--3----3--3--3----3--3--|--3----3--3--3----3--3--|


  Q    E  E  Q    E  E     E   E   E   E  Q    E  E     Q    E  E  H         
------------------------|----------------------------|----------------------|
------------------------|----------------------------|----------------------|
------------------------|----------------------------|--3-------------------|
--5---------------------|----------------------------|--3----------7--------|
--5----------5----------|--3h--5p--3p--1--3----1--1--|--1----5--5--5--------|
--3----3--3--3----3--3--|----------------------------|----------------------|


  Q    E  E  Q    E  E     Q    E  E  Q    E  E     Q    E  E  Q    E  E   
------------------------|------------------------|------------------------|
------------------------|------------------------|------------------------|
------------------------|------------------------|------------------------|
--5---------------------|--5---------------------|--5---------------------|
--5----------5----------|--5----------5----------|--5----------5----------|
--3----3--3--3----3--3--|--3----3--3--3----3--3--|--3----3--3--3----3--3--|


  E   E   E   E  Q    E  E     Q    E  E  H           Q    E  E  Q    E  E   
----------------------------|----------------------|------------------------|
----------------------------|----------------------|------------------------|
----------------------------|--3-------------------|------------------------|
----------------------------|--3----------7--------|--5---------------------|
--3h--5p--3p--1--3----1--1--|--1----5--5--5--------|--5----------5----------|
----------------------------|----------------------|--3----3--3--3----3--3--|


  Q    E  E  Q    E  E     Q    E  E  Q    E  E     E   E   E   E  Q    E  E   
------------------------|------------------------|----------------------------|
------------------------|------------------------|----------------------------|
------------------------|------------------------|----------------------------|
--5---------------------|--5---------------------|----------------------------|
--5----------5----------|--5----------5----------|--3h--5p--3p--1--3----1--1--|
--3----3--3--3----3--3--|--3----3--3--3----3--3--|----------------------------|


  Q    E  E  H           Q    E  E  Q    E  E     Q    E  E  Q    E  E   
----------------------|------------------------|------------------------|
----------------------|------------------------|------------------------|
--3-------------------|------------------------|------------------------|
--3----------7--------|--5---------------------|--5---------------------|
--1----5--5--5--------|--5----------5----------|--5----------5----------|
----------------------|--3----3--3--3----3--3--|--3----3--3--3----3--3--|


  Q    E  E  Q    E  E     E   E   E   E  Q    E  E     Q    E  E  H         
------------------------|----------------------------|----------------------|
------------------------|----------------------------|----------------------|
------------------------|----------------------------|--3-------------------|
--5---------------------|----------------------------|--3----------7--------|
--5----------5----------|--3h--5p--3p--1--3----1--1--|--1----5--5--5--------|
--3----3--3--3----3--3--|----------------------------|----------------------|


  Q    E  E  E  E  Q       Q    E  E  E  E  Q       Q    E  E  Q    E  E   
------------------------|------------------------|------------------------|
------------------------|------------------------|------------------------|
------------------------|------------------------|------------------------|
------------------------|------------------------|------------------------|
--5----------------7----|--5----------------7----|--8----------3----------|
--3----3--3--3--3--5----|--3----3--3--3--3--5----|--6----6--6--1----1--1--|


  Q    E  E  Q    Q       Q    E  E  E  E  Q       Q    E  E  E  E  Q     
-----------------------|------------------------|------------------------|
-----------------------|------------------------|------------------------|
-----------------------|------------------------|------------------------|
--7--------------------|------------------------|------------------------|
--5----5--5--5----7----|--5----------------7----|--5----------------7----|
-------------3----5----|--3----3--3--3--3--5----|--3----3--3--3--3--5----|


  Q    E  E  Q    E  E     Q    E  E  Q    Q       Q    E  E  E  E  Q     
------------------------|-----------------------|------------------------|
------------------------|-----------------------|------------------------|
------------------------|-----------------------|------------------------|
------------------------|--7--------------------|------------------------|
--8----------3----------|--5----5--5--5----7----|--5----------------7----|
--6----6--6--1----1--1--|-------------3----5----|--3----3--3--3--3--5----|


  Q    E  E  E  E  Q       Q    E  E  Q    E  E     Q    E  E  Q    Q     
------------------------|------------------------|-----------------------|
------------------------|------------------------|-----------------------|
------------------------|------------------------|-----------------------|
------------------------|------------------------|--7--------------------|
--5----------------7----|--8----------3----------|--5----5--5--5----7----|
--3----3--3--3--3--5----|--6----6--6--1----1--1--|-------------3----5----|


  Q    E  E  E  E  Q       Q    E  E  E  E  Q       Q    E  E  Q    E  E   
------------------------|------------------------|------------------------|
------------------------|------------------------|------------------------|
------------------------|------------------------|------------------------|
------------------------|------------------------|------------------------|
--5----------------7----|--5----------------7----|--8----------3----------|
--3----3--3--3--3--5----|--3----3--3--3--3--5----|--6----6--6--1----1--1--|


  Q    E  E  Q    Q       Q    E  E  Q    E  E     Q    E  E  Q    E  E   
-----------------------|------------------------|------------------------|
-----------------------|------------------------|------------------------|
-----------------------|------------------------|------------------------|
--7--------------------|--5---------------------|--5---------------------|
--5----5--5--5----7----|--5----------5----------|--5----------5----------|
-------------3----5----|--3----3--3--3----3--3--|--3----3--3--3----3--3--|


  Q    E  E  Q    E  E     E   E   E   E  Q    E  E     Q    E  E  H         
------------------------|----------------------------|----------------------|
------------------------|----------------------------|----------------------|
------------------------|----------------------------|--3-------------------|
--5---------------------|----------------------------|--3----------7--------|
--5----------5----------|--3h--5p--3p--1--3----1--1--|--1----5--5--5--------|
--3----3--3--3----3--3--|----------------------------|----------------------|


  Q    E  E  Q    E  E     Q    E  E  Q    E  E     Q    E  E  Q    E  E   
------------------------|------------------------|------------------------|
------------------------|------------------------|------------------------|
------------------------|------------------------|------------------------|
--5---------------------|--5---------------------|--5---------------------|
--5----------5----------|--5----------5----------|--5----------5----------|
--3----3--3--3----3--3--|--3----3--3--3----3--3--|--3----3--3--3----3--3--|


  E   E   E   E  Q    E  E     Q    E  E  H           W                 
----------------------------|----------------------|-------------------|
----------------------------|----------------------|-------------------|
----------------------------|--3-------------------|-------------------|
----------------------------|--3----------7--------|--3----------------|
--3h--5p--3p--1--3----1--1--|--1----5--5--5--------|--3----------------|
----------------------------|----------------------|--1----------------|


  S S S S S S S S S S S S S S S S    S S S S S S S S S S S S S S S S  
----------------------------------|----------------------------------|
----------------------------------|----------------------------------|
----------------------------------|----------------------------------|
----------------------------------|----------------------------------|
------------------1-1-1-1-5-5-5-5-|--3-3-3-3-3-3-3-3-1-1-1-1-1-1-1-1-|
--3-3-3-3-3-3-3-3-----------------|----------------------------------|


  S S S S S S S S S S S S S S S S    S S S S S S S S S S S S S S S S  
----------------------------------|----------------------------------|
----------------------------------|----------------------------------|
----------------------------------|----------------------------------|
----------------------------------|----------------------------------|
----------------------------------|--5-5-5-5-5-5-5-5-----------------|
--5-5-5-5-1-1-1-1-3-3-3-3-3-3-3-3-|------------------3-3-3-3-3-3-3-3-|


  S S S S S S S S S S S S S S S S    S S S S S S S S S S S S S S S S  
----------------------------------|----------------------------------|
----------------------------------|----------------------------------|
----------------------------------|----------------------------------|
----------------------------------|----------------------------------|
------------------1-1-1-1-5-5-5-5-|--3-3-3-3-3-3-3-3-1-1-1-1-1-1-1-1-|
--3-3-3-3-3-3-3-3-----------------|----------------------------------|


  S S S S S S S S S S S S S S S S    S S S S S S S S S S S S S S S S  
----------------------------------|----------------------------------|
----------------------------------|----------------------------------|
----------------------------------|----------------------------------|
----------------------------------|----------------------------------|
----------------------------------|--5-5-5-5-5-5-5-5-----------------|
--1-1-1-1-1-1-1-1-3-3-3-3-3-3-3-3-|------------------3-3-3-3-3-3-3-3-|


  W                   H.           Q        S S S S S S S S S S S S S S S S  
-------------------|---------------------|----------------------------------|
-------------------|---------------------|----------------------------------|
--5----------------|--L------------------|----------------------------------|
--5----------------|--L------------------|----------------------------------|
--3----------------|--L------------3S----|------------------1-1-1-1-1-1-1-1-|
-------------------|---------------------|--3-3-3-3-3-3-3-3-----------------|


  S S S S S S S S S S S S S S S S    S S S S S S S S S S S S S S S S  
----------------------------------|----------------------------------|
----------------------------------|----------------------------------|
----------------------------------|----------------------------------|
----------------------------------|----------------------------------|
--3-3-3-3-3-3-3-3-1-1-1-1-1-1-1-1-|--3-3-3-3-3-3-3-3-1-1-1-1-1-1-1-1-|
----------------------------------|----------------------------------|


  S S S S S S S S S S S S S S S S    S S S S S S S S S S S S S S S S  
----------------------------------|----------------------------------|
----------------------------------|----------------------------------|
----------------------------------|----------------------------------|
----------------------------------|----------------------------------|
----------------------------------|------------------1-1-1-1-1-1-1-1-|
--5-5-5-5-5-5-5-5-3-3-3-3-3-3-3-3-|--3-3-3-3-3-3-3-3-----------------|


  S S S S S S S S S S S S S S S S    S S S S S S S S S S S S S S S S  
----------------------------------|----------------------------------|
----------------------------------|----------------------------------|
----------------------------------|----------------------------------|
----------------------------------|----------------------------------|
--3-3-3-3-3-3-3-3-1-1-1-1-1-1-1-1-|--3-3-3-3-3-3-3-3-1-1-1-1-1-1-1-1-|
----------------------------------|----------------------------------|


  S S S S S S S S S S S S S S S S    S S S S S S S S S S S S S S S S  
----------------------------------|----------------------------------|
----------------------------------|----------------------------------|
----------------------------------|----------------------------------|
----------------------------------|----------------------------------|
----------------------------------|------------------1-1-1-1-1-1-1-1-|
--5-5-5-5-5-5-5-5-3-3-3-3-3-3-3-3-|--3-3-3-3-3-3-3-3-----------------|


  S S S S S S S S S S S S S S S S    S S S S S S S S S S S S S S S S  
----------------------------------|----------------------------------|
----------------------------------|----------------------------------|
----------------------------------|----------------------------------|
----------------------------------|----------------------------------|
--3-3-3-3-3-3-3-3-1-1-1-1-1-1-1-1-|--6-6-6-6-6-6-6-6-5-5-5-5-5-5-5-5-|
----------------------------------|----------------------------------|


  S S S S S S S S S S S S S S S S    S S S S S S S S S S S S S S S S  
----------------------------------|----------------------------------|
----------------------------------|----------------------------------|
----------------------------------|----------------------------------|
----------------------------------|----------------------------------|
--1-1-1-1-1-1-1-1-5-5-5-5-5-5-5-5-|------------------1-1-1-1-1-1-1-1-|
----------------------------------|--3-3-3-3-3-3-3-3-----------------|


  S S S S S S S S S S S S S S S S    S S S S S S S S S S S S S S S S  
----------------------------------|----------------------------------|
----------------------------------|----------------------------------|
----------------------------------|----------------------------------|
----------------------------------|----------------------------------|
--3-3-3-3-3-3-3-3-1-1-1-1-1-1-1-1-|--6-6-6-6-6-6-6-6-5-5-5-5-5-5-5-5-|
----------------------------------|----------------------------------|


                                     ^        v     ^    v    
  S S S S S S S S S S S S S S S S    H        Q     E    E    
----------------------------------|--------------------------|
----------------------------------|--------------------------|
----------------------------------|--7--------7----(7)--(7)--|
--3-3-3-3-3-3-3-3-5-5-5-5-5-5-5-5-|--5--------5----(5)--(5)--|
----------------------------------|--------------------------|
----------------------------------|--------------------------|


  ^     v    ^   v     v    ^       ^         v      ^     v    
  Q     E    E   Q     E    E       H         Q      E     E    
--------------------------------|------------------------------|
--------------------------------|------------------------------|
--9----(9)--(9)--7----(7)--(7)--|--10--------10----(10)--(10)--|
--7----(7)--(7)--5----(5)--(5)--|---8---------8-----(8)---(8)--|
--------------------------------|------------------------------|
--------------------------------|------------------------------|


    ^     v     ^     v   ^           ^        v     ^    v    
    E     E     E     E   H           H        Q     E    E    
-----------------------------------|--------------------------|
-----------------------------------|--------------------------|
--(10)--(10)--(10)--(10)--7--------|--7--------7----(7)--(7)--|
---(8)---(8)---(8)---(8)--5--------|--5--------5----(5)--(5)--|
-----------------------------------|--------------------------|
-----------------------------------|--------------------------|


  ^     v    ^   v     v    ^       ^         v      ^     v    
  Q     E    E   Q     E    E       H         Q      E     E    
--------------------------------|------------------------------|
--------------------------------|------------------------------|
--9----(9)--(9)--7----(7)--(7)--|--10--------10----(10)--(10)--|
--7----(7)--(7)--5----(5)--(5)--|---8---------8-----(8)---(8)--|
--------------------------------|------------------------------|
--------------------------------|------------------------------|


    ^     v     ^     v   ^                                 
    E     E     E     E   H           Q    Q    Q    E  E   
-----------------------------------|-----------------------|
-----------------------------------|-----------------------|
--(10)--(10)--(10)--(10)--7--------|-----------------------|
---(8)---(8)---(8)---(8)--5--------|-----------------------|
-----------------------------------|--5----x----5----------|
-----------------------------------|--3----x----3----3--3--|


  Q    E  E  Q    E  E     Q    Q    Q    E  E     E  E  E  E  H         
------------------------|-----------------------|-----------------------|
------------------------|-----------------------|-----------------------|
------------------------|-----------------------|-----------------------|
--5---------------------|--3----x----3----------|-----------------------|
--3----3--3--5----------|--1----x----1----1--1--|--------------5--------|
-------------3----3--3--|-----------------------|--1--1--1--1--3--------|


  Q    Q    Q    E  E     Q    E  E  Q    E  E     Q    Q    E  E  Q     
-----------------------|------------------------|-----------------------|
-----------------------|------------------------|-----------------------|
-----------------------|------------------------|-----------------------|
-----------------------|--5---------------------|--3----x----------3----|
--5----x----5----------|--3----3--3--5----------|--1----x----1--1--1----|
--3----x----3----3--3--|-------------3----3--3--|-----------------------|


  E  E  E  E  H           Q    E  E  E  E  Q       Q    E  E  Q    E  E   
-----------------------|------------------------|------------------------|
-----------------------|------------------------|------------------------|
-----------------------|------------------------|------------------------|
--7--------------------|------------------------|--5---------------------|
--5--5--5--5--5--------|--5----------------5----|--3----3--3--5----------|
--------------3--------|--3----3--3--3--3--3----|-------------3----3--3--|


  Q    E  E  E  E  Q       E  E  Q    H           Q    E  E  E  E  Q     
------------------------|----------------------|------------------------|
------------------------|----------------------|------------------------|
------------------------|----------------------|------------------------|
--3----------------3----|----------------------|------------------------|
--1----1--1--1--1--1----|--3--x--3----5--------|--5----------------5----|
------------------------|--1--x--1----3--------|--3----3--3--3--3--3----|


  Q    E  E  Q    E  E     Q    E  E  E  E  Q       E  E  Q    H         
------------------------|------------------------|----------------------|
------------------------|------------------------|----------------------|
------------------------|------------------------|----------------------|
--5---------------------|--3----------------3----|--7--x--7-------------|
--3----3--3--5----------|--1----1--1--1--1--1----|--5--x--5----5--------|
-------------3----3--3--|------------------------|-------------3--------|


  H.           E  E     Q    E  E  Q    E  E     H.           E  E   
---------------------|------------------------|---------------------|
---------------------|------------------------|---------------------|
---------------------|------------------------|---------------------|
---------------------|--5---------------------|--3------------------|
--5------------------|--3----3--3--5----------|--1------------1--1--|
--3------------3--3--|-------------3----3--3--|---------------------|


  E  E  Q    H           H.           E  E     Q    E  E  Q    E  E   
----------------------|---------------------|------------------------|
----------------------|---------------------|------------------------|
----------------------|---------------------|------------------------|
----------------------|---------------------|--5---------------------|
--------3----5--------|--5------------------|--3----3--3--5----------|
--1--1--1----3--------|--3------------3--3--|-------------3----3--3--|


  H.           E  E     E  E  E  E  E  E  E  E     Q    E  E  E  E  Q     
---------------------|--------------------------|------------------------|
---------------------|--------------------------|------------------------|
---------------------|--------------------------|------------------------|
--3------------------|--------------------------|------------------------|
--1------------1--1--|--5--5--5--5--5--5--5--5--|--5----------------7----|
---------------------|--------------------------|--3----3--3--3--3--5----|


  Q    E  E  E  E  Q       Q    E  E  Q    E  E     Q    E  E  Q    Q     
------------------------|------------------------|-----------------------|
------------------------|------------------------|-----------------------|
------------------------|------------------------|-----------------------|
------------------------|------------------------|--7--------------------|
--5----------------7----|--8----------3----------|--5----5--5--5----7----|
--3----3--3--3--3--5----|--6----6--6--1----1--1--|-------------3----5----|


  Q    E  E  E  E  Q       Q    E  E  E  E  Q       Q    E  E  Q    E  E   
------------------------|------------------------|------------------------|
------------------------|------------------------|------------------------|
------------------------|------------------------|------------------------|
------------------------|------------------------|------------------------|
--5----------------7----|--5----------------7----|--8----------3----------|
--3----3--3--3--3--5----|--3----3--3--3--3--5----|--6----6--6--1----1--1--|


  Q    E  E  Q    Q       Q    E  E  E  E  Q       Q    E  E  E  E  Q     
-----------------------|------------------------|------------------------|
-----------------------|------------------------|------------------------|
-----------------------|------------------------|------------------------|
--7--------------------|------------------------|------------------------|
--5----5--5--5----7----|--5----------------7----|--5----------------7----|
-------------3----5----|--3----3--3--3--3--5----|--3----3--3--3--3--5----|


  Q    E  E  Q    E  E     Q    E  E  Q    Q       Q    E  E  E  E  Q     
------------------------|-----------------------|------------------------|
------------------------|-----------------------|------------------------|
------------------------|-----------------------|------------------------|
------------------------|--7--------------------|------------------------|
--8----------3----------|--5----5--5--5----7----|--5----------------7----|
--6----6--6--1----1--1--|-------------3----5----|--3----3--3--3--3--5----|


  Q    E  E  E  E  Q       Q    E  E  Q    E  E     Q    E  E  Q    Q     
------------------------|------------------------|-----------------------|
------------------------|------------------------|-----------------------|
------------------------|------------------------|-----------------------|
------------------------|------------------------|--7--------------------|
--5----------------7----|--8----------3----------|--5----5--5--5----7----|
--3----3--3--3--3--5----|--6----6--6--1----1--1--|-------------3----5----|


  S S S S S S S S S S S S S S S S    S S S S S S S S S S S S S S S S  
----------------------------------|----------------------------------|
----------------------------------|----------------------------------|
----------------------------------|----------------------------------|
----------------------------------|----------------------------------|
------------------1-1-1-1-5-5-5-5-|--3-3-3-3-3-3-3-3-1-1-1-1-1-1-1-1-|
--3-3-3-3-3-3-3-3-----------------|----------------------------------|


  S S S S S S S S S S S S S S S S    S S S S S S S S S S S S S S S S  
----------------------------------|----------------------------------|
----------------------------------|----------------------------------|
----------------------------------|----------------------------------|
----------------------------------|----------------------------------|
----------------------------------|--5-5-5-5-5-5-5-5-----------------|
--5-5-5-5-1-1-1-1-3-3-3-3-3-3-3-3-|------------------3-3-3-3-3-3-3-3-|


  S S S S S S S S S S S S S S S S    S S S S S S S S S S S S S S S S  
----------------------------------|----------------------------------|
----------------------------------|----------------------------------|
----------------------------------|----------------------------------|
----------------------------------|----------------------------------|
------------------1-1-1-1-5-5-5-5-|--3-3-3-3-3-3-3-3-1-1-1-1-1-1-1-1-|
--3-3-3-3-3-3-3-3-----------------|----------------------------------|


  S S S S S S S S S S S S S S S S    S S S S S S S S S S S S S S S S  
----------------------------------|----------------------------------|
----------------------------------|----------------------------------|
----------------------------------|----------------------------------|
----------------------------------|----------------------------------|
----------------------------------|--5-5-5-5-5-5-5-5-----------------|
--1-1-1-1-1-1-1-1-3-3-3-3-3-3-3-3-|------------------3-3-3-3-3-3-3-3-|


  W                   H.           Q        S S S S S S S S S S S S S S S S  
-------------------|---------------------|----------------------------------|
-------------------|---------------------|----------------------------------|
--5----------------|--L------------------|----------------------------------|
--5----------------|--L------------------|----------------------------------|
--3----------------|--L------------3S----|------------------1-1-1-1-1-1-1-1-|
-------------------|---------------------|--3-3-3-3-3-3-3-3-----------------|


  S S S S S S S S S S S S S S S S    S S S S S S S S S S S S S S S S  
----------------------------------|----------------------------------|
----------------------------------|----------------------------------|
----------------------------------|----------------------------------|
----------------------------------|----------------------------------|
--3-3-3-3-3-3-3-3-1-1-1-1-1-1-1-1-|--3-3-3-3-3-3-3-3-1-1-1-1-1-1-1-1-|
----------------------------------|----------------------------------|


  S S S S S S S S S S S S S S S S    S S S S S S S S S S S S S S S S  
----------------------------------|----------------------------------|
----------------------------------|----------------------------------|
----------------------------------|----------------------------------|
----------------------------------|----------------------------------|
----------------------------------|------------------1-1-1-1-1-1-1-1-|
--5-5-5-5-5-5-5-5-3-3-3-3-3-3-3-3-|--3-3-3-3-3-3-3-3-----------------|


  S S S S S S S S S S S S S S S S    S S S S S S S S S S S S S S S S  
----------------------------------|----------------------------------|
----------------------------------|----------------------------------|
----------------------------------|----------------------------------|
----------------------------------|----------------------------------|
--3-3-3-3-3-3-3-3-1-1-1-1-1-1-1-1-|--3-3-3-3-3-3-3-3-1-1-1-1-1-1-1-1-|
----------------------------------|----------------------------------|


  S S S S S S S S S S S S S S S S    S S S S S S S S S S S S S S S S  
----------------------------------|----------------------------------|
----------------------------------|----------------------------------|
----------------------------------|----------------------------------|
----------------------------------|----------------------------------|
----------------------------------|------------------1-1-1-1-1-1-1-1-|
--5-5-5-5-5-5-5-5-3-3-3-3-3-3-3-3-|--3-3-3-3-3-3-3-3-----------------|


  S S S S S S S S S S S S S S S S    S S S S S S S S S S S S S S S S  
----------------------------------|----------------------------------|
----------------------------------|----------------------------------|
----------------------------------|----------------------------------|
----------------------------------|----------------------------------|
--3-3-3-3-3-3-3-3-1-1-1-1-1-1-1-1-|--6-6-6-6-6-6-6-6-5-5-5-5-5-5-5-5-|
----------------------------------|----------------------------------|


  S S S S S S S S S S S S S S S S    S S S S S S S S S S S S S S S S  
----------------------------------|----------------------------------|
----------------------------------|----------------------------------|
----------------------------------|----------------------------------|
----------------------------------|----------------------------------|
--1-1-1-1-1-1-1-1-5-5-5-5-5-5-5-5-|------------------1-1-1-1-1-1-1-1-|
----------------------------------|--3-3-3-3-3-3-3-3-----------------|


  S S S S S S S S S S S S S S S S    S S S S S S S S S S S S S S S S  
----------------------------------|----------------------------------|
----------------------------------|----------------------------------|
----------------------------------|----------------------------------|
----------------------------------|----------------------------------|
--3-3-3-3-3-3-3-3-1-1-1-1-1-1-1-1-|--6-6-6-6-6-6-6-6-5-5-5-5-5-5-5-5-|
----------------------------------|----------------------------------|


  S S S S S S S S S S S S S S S S    Q    S S S S Q    S S S S  
----------------------------------|----------------------------|
----------------------------------|----------------------------|
----------------------------------|----------------------------|
--3-3-3-3-3-3-3-3-5-5-5-5-5-5-5-5-|--5-------------------------|
----------------------------------|--5------------5------------|
----------------------------------|--3----3-3-3-3-3----3-3-3-3-|


  Q    S S S S Q    S S S S    Q    S S S S Q    S S S S  
----------------------------|----------------------------|
----------------------------|----------------------------|
----------------------------|----------------------------|
--5-------------------------|--5-------------------------|
--5------------5------------|--5------------5------------|
--3----3-3-3-3-3----3-3-3-3-|--3----3-3-3-3-3----3-3-3-3-|


  E   E   E   E  Q    S S S S    Q    S S S S H         
------------------------------|------------------------|
------------------------------|------------------------|
------------------------------|--3---------------------|
------------------------------|--3------------7--------|
--3h--5p--3p--1--3----1-1-1-1-|--1----5-5-5-5-5--------|
------------------------------|------------------------|


  Q    S S S S Q    S S S S    Q    S S S S Q    S S S S  
----------------------------|----------------------------|
----------------------------|----------------------------|
----------------------------|----------------------------|
----------------------------|----------------------------|
--5------------5------------|--5------------5------------|
--3----3-3-3-3-3----3-3-3-3-|--3----3-3-3-3-3----3-3-3-3-|


  Q    S S S S Q    S S S S    E   E   E   E   Q    S S S S  
----------------------------|-------------------------------|
----------------------------|-------------------------------|
----------------------------|-------------------------------|
----------------------------|-------------------------------|
--5------------5------------|--3h--5p--3p--1h--3----1-1-1-1-|
--3----3-3-3-3-3----3-3-3-3-|-------------------------------|


  Q    S S S S H           Q    E  E  Q    E  E     Q    E  E  Q    E  E   
------------------------|------------------------|------------------------|
------------------------|------------------------|------------------------|
--3---------------------|------------------------|------------------------|
--3------------7--------|--7---------------------|--7---------------------|
--1----5-5-5-5-5--------|--7----------7----------|--7----------7----------|
------------------------|--5----5--5--5----5--5--|--5----5--5--5----5--5--|


  Q    E  E  Q    E  E     E   E   E   E   H           Q    E  E  H         
------------------------|---------------------------|----------------------|
------------------------|---------------------------|----------------------|
------------------------|--7h--9p--7p--5h--7--------|--5-------------------|
--7---------------------|---------------------------|--5----------9--------|
--7----------7----------|---------------------------|--3----3--3--7--------|
--5----5--5--5----5--5--|---------------------------|----------------------|


  Q    E  E  Q    E  E     Q    E  E  Q    E  E     Q    E  E  Q    E  E   
------------------------|------------------------|------------------------|
------------------------|------------------------|------------------------|
------------------------|------------------------|------------------------|
--7---------------------|--7---------------------|--7---------------------|
--7----------7----------|--7----------7----------|--7----------7----------|
--5----5--5--5----5--5--|--5----5--5--5----5--5--|--5----5--5--5----5--5--|


  E   E   E   E   H           Q    E  E  H         
---------------------------|----------------------|
---------------------------|----------------------|
--7h--9p--7p--5h--7--------|--5-------------------|
---------------------------|--5----------9--------|
---------------------------|--3----3--3--7--------|
---------------------------|----------------------|


       |--3--|       |--3--|          |--3--|       |--3--|   
  Q    E  E  E  Q    E  E  E     Q    E  E  E  Q    E  E  E   
------------------------------|------------------------------|
------------------------------|------------------------------|
------------------------------|------------------------------|
--7---------------------------|--7---------------------------|
--7-------------7-------------|--7-------------7-------------|
--5----5--5--5--5----5--5--5--|--5----5--5--5--5----5--5--5--|


       |--3--|       |--3--|                               
  Q    E  E  E  Q    E  E  E     E   E   E   E   H         
------------------------------|---------------------------|
------------------------------|---------------------------|
------------------------------|--7h--9p--7p--5h--7--------|
--7---------------------------|---------------------------|
--7-------------7-------------|---------------------------|
--5----5--5--5--5----5--5--5--|---------------------------|


                                  |--3--|       |--3--|   
  Q    S S E  Q    S S E     Q    E  E  E  Q    E  E  E   
--------------------------|------------------------------|
--------------------------|------------------------------|
--2----2-0-----------0-2--|------------------------------|
-----------3--2----3------|--7---------------------------|
--------------------------|--7-------------7-------------|
--------------------------|--5----5--5--5--5----5--5--5--|


       |--3--|       |--3--|          |--3--|       |--3--|   
  Q    E  E  E  Q    E  E  E     Q    E  E  E  Q    E  E  E   
------------------------------|------------------------------|
------------------------------|------------------------------|
------------------------------|------------------------------|
--7---------------------------|--7---------------------------|
--7-------------7-------------|--7-------------7-------------|
--5----5--5--5--5----5--5--5--|--5----5--5--5--5----5--5--5--|


  E   E   E   E   H           Q    S S E  H           W                 
---------------------------|-----------------------|-------------------|
---------------------------|-----------------------|-------------------|
--7h--9p--7p--5h--7--------|--2----2-0-------------|--5----------------|
---------------------------|-----------3--2--------|--5----------------|
---------------------------|-----------------------|--3----------------|
---------------------------|-----------------------|-------------------|


                                   ^     v   ^   v     ^   v   
  W                   H            Q     E   E   Q     E   E   
-------------------|-----------|------------------------------|
-------------------|-----------|------------------------------|
-------------------|-----------|--14----14--14--14----14--14--|
--3----------------|-----------|--12----12--12--12----12--12--|
--3----------------|-----------|--12----12--12--12----12--12--|
--1----------------|-----------|------------------------------|


   ^     v   ^   v     ^   v      ^     v       ^     v   ^   
   Q     E   E   Q     E   E      Q     E   E   Q     E   E   
------------------------------|------------------------------|
------------------------------|------------------------------|
--14----14--14--14----14--14--|--14----14--14--14----14--14--|
--12----12--12--12----12--12--|--15----15--15--15----15--15--|
--12----12--12--12----12--12--|--12----12--12--12----12--12--|
------------------------------|------------------------------|


   v     ^   v   ^            v     ^   v   ^         
   Q     E   E   H            Q     E   E   H         
--------------------------|--------------------------|
--------------------------|--------------------------|
--14----14--14--12--------|--------------------------|
--15----15--15--12--------|--14----14--14--14--------|
--12----12--12--10--------|--15----15--15--15--------|
--------------------------|--12----12--12--12--------|


   v     ^   v   ^            v     ^   v   ^                 v   ^   v         
   Q     E   E   H            Q     E   E   H           Q     E   E   H         
--------------------------|--------------------------|-------------------------|
--------------------------|--------------------------|-------------------------|
--------------------------|--------------------------|---------------14--------|
--12----12--12--12--------|--14----14--14--14--------|--L----14--14--15--------|
--12----12--12--12--------|--15----15--15--15--------|--L----15--15--12--------|
--10----10--10--10--------|--12----12--12--12--------|--L----12--12------------|


   ^     v   ^   v     ^   v      ^     v   ^   v     ^   v   
   Q     E   E   Q     E   E      Q     E   E   Q     E   E   
------------------------------|------------------------------|
------------------------------|------------------------------|
--14----14--14--14----14--14--|--14----14--14--14----14--14--|
--12----12--12--12----12--12--|--12----12--12--12----12--12--|
--12----12--12--12----12--12--|--12----12--12--12----12--12--|
------------------------------|------------------------------|


   ^     v       ^     v   ^      v     ^   v   ^         
   Q     E   E   Q     E   E      Q     E   E   H         
------------------------------|--------------------------|
------------------------------|--------------------------|
--14----14--14--14----14--14--|--14----14--14--12--------|
--15----15--15--15----15--15--|--15----15--15--12--------|
--12----12--12--12----12--12--|--12----12--12--10--------|
------------------------------|--------------------------|


   v     ^   v   ^            v     ^   v   ^           v         ^         
   Q     E   E   H            Q     E   E   H           H         H         
--------------------------|--------------------------|---------------------|
--------------------------|--------------------------|---------------------|
--------------------------|--14----14--14--14--------|---------------------|
--12----12--12--12--------|--15----15--15--15--------|--7--------12--------|
--12----12--12--12--------|--12----12--12--12--------|--7--------12--------|
--10----10--10--10--------|--------------------------|--5--------10--------|


   Pick Scratch                                                       
   W                    Q    E  E  H           Q    E  E  Q    E  E   
---------------------|----------------------|------------------------|
---------------------|----------------------|------------------------|
---------------------|-------------7--------|--L---------------------|
---L-----------------|--7----------7--------|--L----------7----------|
---L-----------------|--5----5--5--5--------|--L----5--5--5----5--5--|
--15S----------------|----------------------|------------------------|


  Q    E  E  H           Q    E  E  Q    E  E     Q    E  E  H         
----------------------|------------------------|----------------------|
----------------------|------------------------|----------------------|
----------------------|------------------------|----------------------|
-------------3--------|--L---------------------|-------------7--------|
--3----------3--------|--L----------5----------|--7----------7--------|
--1----1--1--1--------|--L----1--1--3----3--3--|--5----5--5--5--------|


  Q    E  E  H           Q    E  E  H           H        H         
----------------------|----------------------|--------------------|
----------------------|----------------------|--------------------|
----------------------|----------------------|-----------5--------|
-------------5--------|-------------7--------|--L--------5--------|
--5----------5--------|--7----------7--------|--L--------3--------|
--3----3--3--3--------|--5----5--5--5--------|--L-----------------|


  Q    E  E  H           Q    E  E  Q    E  E     Q    E  E  H         
----------------------|------------------------|----------------------|
----------------------|------------------------|----------------------|
-------------7--------|--L---------------------|----------------------|
--7----------7--------|--L----------7----------|-------------3--------|
--5----5--5--5--------|--L----5--5--5----5--5--|--3----------3--------|
----------------------|------------------------|--1----1--1--1--------|


  Q    E  E  Q    E  E     Q    E  E  H           Q    E  E  H         
------------------------|----------------------|----------------------|
------------------------|----------------------|----------------------|
------------------------|----------------------|-------------3--------|
--L---------------------|-------------5--------|--3----------3--------|
--L----------3----------|--5----------5--------|--1----1--1--1--------|
--L----1--1--1----1--1--|--3----3--3--3--------|----------------------|


  Q    E  E  H           W                   Q    E  E  H         
----------------------|-------------------|----------------------|
----------------------|-------------------|----------------------|
-------------7--------|--L----------------|----------------------|
-------------7--------|--L----------------|-------------5--------|
--7----------5--------|--L----------------|--5----------5--------|
--5----5--5-----------|-------------------|--3----3--3--3--------|


  W                   Q    E  E  H           W                 
-------------------|----------------------|-------------------|
-------------------|----------------------|-------------------|
-------------------|-------------3--------|--L----------------|
--L----------------|--5----------3--------|--L----------------|
--L----------------|--3----3--3--1--------|--L----------------|
--L----------------|----------------------|-------------------|


  Q    E  E  H           Q    E  E  H           Q    E  E  H         
----------------------|----------------------|----------------------|
----------------------|----------------------|----------------------|
----------------------|----------------------|----------------------|
-------------5--------|--L----------5--------|--7----------5--------|
--3----------5--------|--L----------5--------|--5----5--5--5--------|
--1----1--1--3--------|--L----3--3--3--------|-------------3--------|


  W                   Q    E  E  Q    E  E     Q    E  E  Q    E  E   
-------------------|------------------------|------------------------|
-------------------|------------------------|------------------------|
-------------------|------------------------|------------------------|
--L----------------|------------------------|------------------------|
--L----------------|--5----------5----------|--5----------5----------|
--L----------------|--3----3--3--3----3--3--|--3----3--3--3----3--3--|


  Q    E  E  Q    E  E     Q    E  E  Q    E  E     H        H         
------------------------|------------------------|--------------------|
------------------------|------------------------|--------------------|
------------------------|------------------------|-----------7--------|
--5----------3----------|--3---------------------|--5--------7--------|
--3----3--3--1----1--1--|--1----1--1--3----------|--5--------5--------|
------------------------|-------------1----1--1--|--3-----------------|


  W                   W                   S S S S S S S S S S S S S S S S  
-------------------|-------------------|----------------------------------|
-------------------|-------------------|----------------------------------|
-------------------|-------------------|----------------------------------|
--5----------------|--L----------------|----------------------------------|
--5----------------|--L----------------|------------------1-1-1-1-1-1-1-1-|
--3----------------|--L----------------|--3-3-3-3-3-3-3-3-----------------|


  S S S S S S S S S S S S S S S S    S S S S S S S S S S S S S S S S  
----------------------------------|----------------------------------|
----------------------------------|----------------------------------|
----------------------------------|----------------------------------|
----------------------------------|----------------------------------|
--3-3-3-3-3-3-3-3-1-1-1-1-1-1-1-1-|--3-3-3-3-3-3-3-3-1-1-1-1-1-1-1-1-|
----------------------------------|----------------------------------|


  S S S S S S S S S S S S S S S S    S S S S S S S S S S S S S S S S  
----------------------------------|----------------------------------|
----------------------------------|----------------------------------|
----------------------------------|----------------------------------|
----------------------------------|----------------------------------|
----------------------------------|------------------1-1-1-1-1-1-1-1-|
--5-5-5-5-5-5-5-5-3-3-3-3-3-3-3-3-|--3-3-3-3-3-3-3-3-----------------|


  S S S S S S S S S S S S S S S S    S S S S S S S S S S S S S S S S  
----------------------------------|----------------------------------|
----------------------------------|----------------------------------|
----------------------------------|----------------------------------|
----------------------------------|----------------------------------|
--3-3-3-3-3-3-3-3-1-1-1-1-1-1-1-1-|--3-3-3-3-3-3-3-3-1-1-1-1-1-1-1-1-|
----------------------------------|----------------------------------|


  S S S S S S S S S S S S S S S S    S S S S S S S S S S S S S S S S  
----------------------------------|----------------------------------|
----------------------------------|----------------------------------|
----------------------------------|----------------------------------|
----------------------------------|----------------------------------|
----------------------------------|------------------1-1-1-1-1-1-1-1-|
--5-5-5-5-5-5-5-5-3-3-3-3-3-3-3-3-|--3-3-3-3-3-3-3-3-----------------|


  S S S S S S S S S S S S S S S S    S S S S S S S S S S S S S S S S  
----------------------------------|----------------------------------|
----------------------------------|----------------------------------|
----------------------------------|----------------------------------|
----------------------------------|----------------------------------|
--3-3-3-3-3-3-3-3-1-1-1-1-1-1-1-1-|--6-6-6-6-6-6-6-6-5-5-5-5-5-5-5-5-|
----------------------------------|----------------------------------|


  S S S S S S S S S S S S S S S S    S S S S S S S S S S S S S S S S  
----------------------------------|----------------------------------|
----------------------------------|----------------------------------|
----------------------------------|----------------------------------|
----------------------------------|----------------------------------|
--1-1-1-1-1-1-1-1-5-5-5-5-5-5-5-5-|------------------1-1-1-1-1-1-1-1-|
----------------------------------|--3-3-3-3-3-3-3-3-----------------|


  S S S S S S S S S S S S S S S S    S S S S S S S S S S S S S S S S  
----------------------------------|----------------------------------|
----------------------------------|----------------------------------|
----------------------------------|----------------------------------|
----------------------------------|----------------------------------|
--3-3-3-3-3-3-3-3-1-1-1-1-1-1-1-1-|--6-6-6-6-6-6-6-6-5-5-5-5-5-5-5-5-|
----------------------------------|----------------------------------|


  S S S S S S S S S S S S S S S S    E  S S S S S S S S S S S S S S  
----------------------------------|---------------------------------|
----------------------------------|---------------------------------|
----------------------------------|---------------------------------|
--3-3-3-3-3-3-3-3-5-5-5-5-5-5-5-5-|---------------------------------|
----------------------------------|--5------------------------------|
----------------------------------|--3--3-3-3-3-3-3-3-3-3-3-3-3-3-3-|


  E  S S S S S S E  S S S S S S    E  S S S S S S S S S S S S S S  
--------------------------------|---------------------------------|
--------------------------------|---------------------------------|
--------------------------------|---------------------------------|
--5-----------------------------|--3------------------------------|
--3--3-3-3-3-3-3-5--------------|--1--1-1-1-1-1-1-1-1-1-1-1-1-1-1-|
-----------------3--3-3-3-3-3-3-|---------------------------------|


  E  S S S S S S H           E  S S S S S S S S S S S S S S  
--------------------------|---------------------------------|
--------------------------|---------------------------------|
--------------------------|---------------------------------|
--------------------------|---------------------------------|
--3--------------5--------|--5------------------------------|
--1--1-1-1-1-1-1-3--------|--3--3-3-3-3-3-3-3-3-3-3-3-3-3-3-|


  E  S S S S S S E  S S S S S S    E  S S S S S S S S S S S S S S  
--------------------------------|---------------------------------|
--------------------------------|---------------------------------|
--------------------------------|---------------------------------|
--5-----------------------------|--3------------------------------|
--3--3-3-3-3-3-3-5--------------|--1--1-1-1-1-1-1-1-1-1-1-1-1-1-1-|
-----------------3--3-3-3-3-3-3-|---------------------------------|


  E  S S S S S S H           E  S S S S S S S S S S S S S S  
--------------------------|---------------------------------|
--------------------------|---------------------------------|
--------------------------|---------------------------------|
--7-----------------------|---------------------------------|
--5--5-5-5-5-5-5-5--------|--5------------------------------|
-----------------3--------|--3--3-3-3-3-3-3-3-3-3-3-3-3-3-3-|


  E  S S S S S S E  S S S S S S    E  S S S S S S S S S S S S S S  
--------------------------------|---------------------------------|
--------------------------------|---------------------------------|
--------------------------------|---------------------------------|
--5-----------------------------|--3------------------------------|
--3--3-3-3-3-3-3-5--------------|--1--1-1-1-1-1-1-1-1-1-1-1-1-1-1-|
-----------------3--3-3-3-3-3-3-|---------------------------------|


  E  S S S S S S H           E  S S S S S S S S S S S S S S  
--------------------------|---------------------------------|
--------------------------|---------------------------------|
--------------------------|---------------------------------|
--------------------------|---------------------------------|
--3--------------5--------|--5------------------------------|
--1--1-1-1-1-1-1-3--------|--3--3-3-3-3-3-3-3-3-3-3-3-3-3-3-|


                                   |--3--|  |--3--|  |--3--|  |--3--|   
  E  S S S S S S E  S S S S S S    E  E  E  E  E  E  E  E  E  E  E  E   
--------------------------------|--------------------------------------|
--------------------------------|--------------------------------------|
--------------------------------|--------------------------------------|
--5-----------------------------|--3-----------------------------------|
--3--3-3-3-3-3-3-5--------------|--1--1--1--1--1--1--1--1--1--1--1--1--|
-----------------3--3-3-3-3-3-3-|--------------------------------------|


  |--3--|  |--3--|              
  E  E  E  E  E  E  Q    Q      
------------------------------||
------------------------------||
------------------------------||
--7---------------------------||
--5--5--5--5--5--5--5----x----||
--------------------3----x----||




Lead



     H        E     Q    E  E  Q    E  E     Q    E  E  Q    E  E   
E||--------------|------------------------|------------------------|
B||--------------|------------------------|------------------------|
G||--------------|------------------------|------------------------|
D||--------------|--5---------------------|--5---------------------|
A||--------------|--5----------5----------|--5----------5----------|
E||--------------|--3----3--3--3----3--3--|--3----3--3--3----3--3--|


  Q    E  E  Q    E  E     Q    Q    Q    E  E     Q    E  E  H         
------------------------|-----------------------|----------------------|
------------------------|-----------------------|----------------------|
------------------------|-----------------------|--3-------------------|
--5---------------------|--3----3----3----------|--3----------7--------|
--5----------5----------|--3----3----3----1--1--|--1----5--5--5--------|
--3----3--3--3----3--3--|--1----1----1----------|----------------------|


  Q    E  E  Q    E  E     Q    E  E  Q    E  E     Q    E  E  Q    E  E   
------------------------|------------------------|------------------------|
------------------------|------------------------|------------------------|
------------------------|------------------------|------------------------|
--5---------------------|--5---------------------|--5---------------------|
--5----------5----------|--5----------5----------|--5----------5----------|
--3----3--3--3----3--3--|--3----3--3--3----3--3--|--3----3--3--3----3--3--|


  Q    Q    Q    E  E     Q    E  E  H           Q    E  E  Q    E  E   
-----------------------|----------------------|------------------------|
-----------------------|----------------------|------------------------|
-----------------------|--3-------------------|--3----x----------x-----|
--3----3----3----------|--3----------7--------|-------------5----------|
--3----3----3----1--1--|--1----5--5--5--------|----------5----------5--|
--1----1----1----------|----------------------|------------------------|


  Q    E  E  Q    E  E     Q    E  E  Q    E  E     E   E   E  E  H         
------------------------|------------------------|-------------------------|
------------------------|------------------------|--1h--3p--1-----1--------|
--3----x----------x-----|--3----x----------x-----|-------------3-----------|
-------------5----------|-------------5----------|-------------------------|
----------5----------5--|----------5----------5--|-------------------------|
------------------------|------------------------|-------------------------|


  Q    E  E  H           Q    E  E  Q    E  E     Q    E  E  Q    E  E   
----------------------|------------------------|------------------------|
----------------------|------------------------|------------------------|
--3-------------------|--3----x----------x-----|--3----x----------x-----|
--3----------7--------|-------------5----------|-------------5----------|
--1----1--1--5--------|----------5----------5--|----------5----------5--|
----------------------|------------------------|------------------------|


  Q    E  E  Q    E  E     E   E   E  E  H           Q    E  E  H         
------------------------|-------------------------|----------------------|
------------------------|--1h--3p--1-----1--------|----------------------|
--3----x----------x-----|-------------3-----------|--3-------------------|
-------------5----------|-------------------------|--3----------7--------|
----------5----------5--|-------------------------|--1----1--1--5--------|
------------------------|-------------------------|----------------------|


  Q    E  E  E  E  Q       Q    E  E  E  E  Q       Q    E  E  Q    E  E   
------------------------|------------------------|------------------------|
------------------------|------------------------|------------------------|
------------------------|------------------------|------------------------|
------------------------|------------------------|------------------------|
--5----------------7----|--5----------------7----|--8----------3----------|
--3----3--3--3--3--5----|--3----3--3--3--3--5----|--6----6--6--1----1--1--|


  Q    E  E  Q    Q       Q    E  E  E  E  Q       Q    E  E  E  E  Q     
-----------------------|------------------------|------------------------|
-----------------------|------------------------|------------------------|
-----------------------|------------------------|------------------------|
--7--------------------|------------------------|------------------------|
--5----5--5--5----7----|--5----------------7----|--5----------------7----|
-------------3----5----|--3----3--3--3--3--5----|--3----3--3--3--3--5----|


  Q    E  E  Q    E  E     Q    E  E  Q    Q       Q    E  E  E  E  Q     
------------------------|-----------------------|------------------------|
------------------------|-----------------------|------------------------|
------------------------|-----------------------|------------------------|
------------------------|--7--------------------|------------------------|
--8----------3----------|--5----5--5--5----7----|--5----------------7----|
--6----6--6--1----1--1--|-------------3----5----|--3----3--3--3--3--5----|


  Q    E  E  E  E  Q       Q    E  E  Q    E  E     Q    E  E  Q    Q     
------------------------|------------------------|-----------------------|
------------------------|------------------------|-----------------------|
------------------------|------------------------|-----------------------|
------------------------|------------------------|--7--------------------|
--5----------------7----|--8----------3----------|--5----5--5--5----7----|
--3----3--3--3--3--5----|--6----6--6--1----1--1--|-------------3----5----|


  Q    E  E  E  E  Q       Q    E  E  E  E  Q       Q    E  E  Q    E  E   
------------------------|------------------------|------------------------|
------------------------|------------------------|------------------------|
------------------------|------------------------|------------------------|
------------------------|------------------------|------------------------|
--5----------------7----|--5----------------7----|--8----------3----------|
--3----3--3--3--3--5----|--3----3--3--3--3--5----|--6----6--6--1----1--1--|


  Q    E  E  Q    Q       Q    E  E  Q    E  E     Q    E  E  Q    E  E   
-----------------------|------------------------|------------------------|
-----------------------|------------------------|------------------------|
-----------------------|------------------------|------------------------|
--7--------------------|--5---------------------|--5---------------------|
--5----5--5--5----7----|--5----------5----------|--5----------5----------|
-------------3----5----|--3----3--3--3----3--3--|--3----3--3--3----3--3--|


  Q    E  E  Q    E  E     Q    Q    Q    E  E     Q    E  E  H         
------------------------|-----------------------|----------------------|
------------------------|-----------------------|----------------------|
------------------------|-----------------------|--3-------------------|
--5---------------------|--3----3----3----------|--3----------7--------|
--5----------5----------|--3----3----3----1--1--|--1----5--5--5--------|
--3----3--3--3----3--3--|--1----1----1----------|----------------------|


  Q    E  E  Q    E  E     Q    E  E  Q    E  E     Q    E  E  Q    E  E   
------------------------|------------------------|------------------------|
------------------------|------------------------|------------------------|
------------------------|------------------------|------------------------|
--5---------------------|--5---------------------|--5---------------------|
--5----------5----------|--5----------5----------|--5----------5----------|
--3----3--3--3----3--3--|--3----3--3--3----3--3--|--3----3--3--3----3--3--|


  Q    Q    Q    E  E     Q    E  E  H           W                 
-----------------------|----------------------|-------------------|
-----------------------|----------------------|-------------------|
-----------------------|--3-------------------|-------------------|
--3----3----3----------|--3----------7--------|--3----------------|
--3----3----3----1--1--|--1----5--5--5--------|--3----------------|
--1----1----1----------|----------------------|--1----------------|


  S S S S S S S S S S S S S S S S    S S S S S S S S S S S S S S S S  
----------------------------------|----------------------------------|
------------------3-3-3-3-3-3-3-3-|--4-4-4-4-4-4-4-4-3-3-3-3-3-3-3-3-|
----------------------------------|----------------------------------|
--5-5-5-5-5-5-5-5-----------------|----------------------------------|
----------------------------------|----------------------------------|
----------------------------------|----------------------------------|


  S S S S S S S S S S S S S S S S    S S S S S S S S S S S S S S S S  
----------------------------------|----------------------------------|
----------------------------------|----------------------------------|
--5-5-5-5-5-5-5-5-3-3-3-3-3-3-3-3-|--2-2-2-2-------------------------|
----------------------------------|----------3-3-3-3-5-5-5-5-5-5-5-5-|
----------------------------------|----------------------------------|
----------------------------------|----------------------------------|


  S S S S S S S S S S S S S S S S    S S S S S S S S S S S S S S S S  
----------------------------------|----------------------------------|
------------------3-3-3-3-3-3-3-3-|--4-4-4-4-4-4-4-4-3-3-3-3-3-3-3-3-|
----------------------------------|----------------------------------|
--5-5-5-5-5-5-5-5-----------------|----------------------------------|
----------------------------------|----------------------------------|
----------------------------------|----------------------------------|


  S S S S S S S S S S S S S S S S    S S S S S S S S S S S S S S S S  
----------------------------------|----------------------------------|
----------3-3-3-3-----------------|----------------------------------|
--5-5-5-5---------3-3-3-3-3-3-3-3-|--2-2-2-2-------------------------|
----------------------------------|----------3-3-3-3-5-5-5-5-5-5-5-5-|
----------------------------------|----------------------------------|
----------------------------------|----------------------------------|


  W                   H.           Q        S S S S S S S S S S S S S S S S  
-------------------|---------------------|----------------------------------|
-------------------|---------------------|----------------------------------|
--5----------------|--L------------------|------------------3-3-3-3-3-3-3-3-|
--5----------------|--L------------------|--5-5-5-5-5-5-5-5-----------------|
--3----------------|--L------------3S----|----------------------------------|
-------------------|---------------------|----------------------------------|


  S S S S S S S S S S S S S S S S    S S S S S S S S S S S S S S S S  
----------------------------------|----------------------------------|
----------------------------------|----------------------------------|
--5-5-5-5-2-2-2-2-3-3-3-3-3-3-3-3-|--5-5-5-5-2-2-2-2-3-3-3-3-3-3-3-3-|
----------------------------------|----------------------------------|
----------------------------------|----------------------------------|
----------------------------------|----------------------------------|


  S S S S S S S S S S S S S S S S    S S S S S S S S S S S S S S S S  
----------------------------------|----------------------------------|
----------------------------------|----------------------------------|
--2-2-2-2-3-3-3-3-----------------|------------------3-3-3-3-3-3-3-3-|
------------------5-5-5-5-5-5-5-5-|--5-5-5-5-5-5-5-5-----------------|
----------------------------------|----------------------------------|
----------------------------------|----------------------------------|


  S S S S S S S S S S S S S S S S    S S S S S S S S S S S S S S S S  
----------------------------------|----------------------------------|
----------------------------------|----------------------------------|
--5-5-5-5-2-2-2-2-3-3-3-3-3-3-3-3-|--5-5-5-5-2-2-2-2-3-3-3-3-3-3-3-3-|
----------------------------------|----------------------------------|
----------------------------------|----------------------------------|
----------------------------------|----------------------------------|


  S S S S S S S S S S S S S S S S    S S S S S S S S S S S S S S S S  
----------------------------------|----------------------------------|
----------------------------------|------------------3-3-3-3-3-3-3-3-|
--2-2-2-2-3-3-3-3-----------------|----------------------------------|
------------------5-5-5-5-5-5-5-5-|--5-5-5-5-5-5-5-5-----------------|
----------------------------------|----------------------------------|
----------------------------------|----------------------------------|


  S S S S S S S S S S S S S S S S    S S S S S S S S S S S S S S S S  
----------------------------------|----------------------------------|
--4-4-4-4---------3-3-3-3-3-3-3-3-|----------------------------------|
----------5-5-5-5-----------------|--3-3-3-3---------2-2-2-2-2-2-5-5-|
----------------------------------|----------5-5-5-5-----------------|
----------------------------------|----------------------------------|
----------------------------------|----------------------------------|


  S S S S S S S S S S S S S S S S    S S S S S S S S S S S S S S S S  
----------------------------------|----------------------------------|
--3-3-3-3-------------------------|------------------3-3-3-3-3-3-3-3-|
----------3-3-3-3-2-2-2-2-2-2-2-2-|----------------------------------|
----------------------------------|--5-5-5-5-5-5-5-5-----------------|
----------------------------------|----------------------------------|
----------------------------------|----------------------------------|


  S S S S S S S S S S S S S S S S    S S S S S S S S S S S S S S S S  
----------------------------------|----------------------------------|
--4-4-4-4---------3-3-3-3---------|--3-3-3-3-------------------------|
----------5-5-5-5---------3-3-5-5-|----------3-3-3-3-2-2-2-2---------|
----------------------------------|--------------------------3-3-3-3-|
----------------------------------|----------------------------------|
----------------------------------|----------------------------------|


  S S S S S S S S S S S S S S S S     Q     Q     Q     E   E   
----------------------------------|----------------------------|
----------------------------------|--------------------11--13--|
--2-2-2-2-3-3-3-3-----------------|--15----12----12------------|
------------------5-5-5-5-5-5-5-5-|----------------------------|
----------------------------------|----------------------------|
----------------------------------|----------------------------|


   E   E   E   E   Q     E   E      E   E   E   E   Q     E   E   
------12------------------------|--------------------------------|
--15------15--13--15----11--13--|--15--16--15--13--15------------|
--------------------------------|------------------------15--15--|
--------------------------------|--------------------------------|
--------------------------------|--------------------------------|
--------------------------------|--------------------------------|


   E   E   E   E   H            Q     Q     Q     E   E   
----------------------------|----------------------------|
----------------------------|--------------------11--13--|
--14--15--14------12--------|--15----12----12------------|
--------------15------------|----------------------------|
----------------------------|----------------------------|
----------------------------|----------------------------|


   E   E   E   E   Q     E   E      S   S   E   E   E   Q     E   E   
------12------------------------|------------------------------------|
--15------15--13--15----11--13--|--15h-16p-15--13b--L--15------------|
--------------------------------|----------------------------15--15--|
--------------------------------|------------------------------------|
--------------------------------|------------------------------------|
--------------------------------|------------------------------------|


   Q     Q     H            Q     Q     Q     E   E   
------------------------|----------------------------|
------------------------|--------------------11--13--|
--14----------12--------|--15----12----12------------|
--------15--------------|----------------------------|
------------------------|----------------------------|
------------------------|----------------------------|


   E   E   E   E   Q     E   E      S   S   E    Q     Q     E   E   
------12------------------------|-----------------------------------|
--15------15--13--15----11--13--|--15h-16-(16)--13----15------------|
--------------------------------|---------------------------15--15--|
--------------------------------|-----------------------------------|
--------------------------------|-----------------------------------|
--------------------------------|-----------------------------------|


   S   S   E     E   E   H            Q     Q     Q     E   E   
----------------------------------|----------------------------|
----------------------------------|--------------------11--13--|
--14h-15-(15)p--12------12--------|--15----12----12------------|
--------------------15------------|----------------------------|
----------------------------------|----------------------------|
----------------------------------|----------------------------|


   E   E   E   E   Q     E   E      S   S   E    E   E   E   E   E   E   
------12------------------------|---------------------------------------|
--15------15--13--15----11--13--|--15h-16-(16)--15--16--15--------------|
--------------------------------|---------------------------15--14--15--|
--------------------------------|---------------------------------------|
--------------------------------|---------------------------------------|
--------------------------------|---------------------------------------|


   E   E   E   E   H            Q     Q     Q     E   E   
----------------------------|----------------------------|
--13------------------------|--------------------11--13--|
------15--14------12--------|--15----12----12------------|
--------------15------------|----------------------------|
----------------------------|----------------------------|
----------------------------|----------------------------|


   E   E   E   E   Q     E   E      S   S   E   E   E   Q     E   E   
------12------------------------|------------------------------------|
--15------15--13--15----11--13--|--15h-16p-15--13b--L--15------------|
--------------------------------|----------------------------15--15--|
--------------------------------|------------------------------------|
--------------------------------|------------------------------------|
--------------------------------|------------------------------------|


   S   S   E     E   E   H            Q     Q     Q     E   E   
----------------------------------|----------------------------|
----------------------------------|--------------------11--13--|
--14h-15-(15)p--12------12--------|--15----12----12------------|
--------------------15------------|----------------------------|
----------------------------------|----------------------------|
----------------------------------|----------------------------|


   E   E   E   E   Q     E   E      S  S   E    E   E   E   E   E   E   
------12------------------------|--------------------------------------|
--15------15--13--15----11--13--|--15-18-(18)--15--16--15--------------|
--------------------------------|--------------------------15--14--15--|
--------------------------------|--------------------------------------|
--------------------------------|--------------------------------------|
--------------------------------|--------------------------------------|


   E   E   E   E   H            Q     Q     Q     E   E   
----------------------------|----------------------------|
--13------------------------|--------------------11--13--|
------15--14------12--------|--15----12----12------------|
--------------15------------|----------------------------|
----------------------------|----------------------------|
----------------------------|----------------------------|


   E   E   E   E   Q     E   E      S   S   E   E   E   Q     E   E   
------12------------------------|------------------------------------|
--15------15--13--15----11--13--|--15h-16p-15--13b--L--15------------|
--------------------------------|----------------------------15--15--|
--------------------------------|------------------------------------|
--------------------------------|------------------------------------|
--------------------------------|------------------------------------|


   S   S   E     E   E   H            Q     Q     Q     E   E   
----------------------------------|----------------------------|
----------------------------------|--------------------11--13--|
--14h-15-(15)p--12------12--------|--15----12----12------------|
--------------------15------------|----------------------------|
----------------------------------|----------------------------|
----------------------------------|----------------------------|


   E   E   E   E   Q     E   E      S  S   E    E   E   E   E   E   E   
------12------------------------|--------------------------------------|
--15------15--13--15----11--13--|--15-18-(18)--15--16--15--------------|
--------------------------------|--------------------------15--14--15--|
--------------------------------|--------------------------------------|
--------------------------------|--------------------------------------|
--------------------------------|--------------------------------------|


   E   E   S   S   E   E   E   E   E     Q    E  E  E  E  Q     
--------------------------------------|------------------------|
--13----------------------------------|------------------------|
------15--14h-15p-14------12--14------|------------------------|
----------------------15----------15--|------------------------|
--------------------------------------|--5----------------7----|
--------------------------------------|--3----3--3--3--3--5----|


  Q    E  E  E  E  Q       Q    E  E  Q    E  E     Q    E  E  Q    Q     
------------------------|------------------------|-----------------------|
------------------------|------------------------|-----------------------|
------------------------|------------------------|-----------------------|
------------------------|------------------------|--7--------------------|
--5----------------7----|--8----------3----------|--5----5--5--5----7----|
--3----3--3--3--3--5----|--6----6--6--1----1--1--|-------------3----5----|


  Q    E  E  E  E  Q       Q    E  E  E  E  Q       Q    E  E  Q    E  E   
------------------------|------------------------|------------------------|
------------------------|------------------------|------------------------|
------------------------|------------------------|------------------------|
------------------------|------------------------|------------------------|
--5----------------7----|--5----------------7----|--8----------3----------|
--3----3--3--3--3--5----|--3----3--3--3--3--5----|--6----6--6--1----1--1--|


  Q    E  E  Q    Q       Q    E  E  E  E  Q       Q    E  E  E  E  Q     
-----------------------|------------------------|------------------------|
-----------------------|------------------------|------------------------|
-----------------------|------------------------|------------------------|
--7--------------------|------------------------|------------------------|
--5----5--5--5----7----|--5----------------7----|--5----------------7----|
-------------3----5----|--3----3--3--3--3--5----|--3----3--3--3--3--5----|


  Q    E  E  Q    E  E     Q    E  E  Q    Q       Q    E  E  E  E  Q     
------------------------|-----------------------|------------------------|
------------------------|-----------------------|------------------------|
------------------------|-----------------------|------------------------|
------------------------|--7--------------------|------------------------|
--8----------3----------|--5----5--5--5----7----|--5----------------7----|
--6----6--6--1----1--1--|-------------3----5----|--3----3--3--3--3--5----|


  Q    E  E  E  E  Q       Q    E  E  Q    E  E     Q    E  E  Q    Q     
------------------------|------------------------|-----------------------|
------------------------|------------------------|-----------------------|
------------------------|------------------------|-----------------------|
------------------------|------------------------|--7--------------------|
--5----------------7----|--8----------3----------|--5----5--5--5----7----|
--3----3--3--3--3--5----|--6----6--6--1----1--1--|-------------3----5----|


  S S S S S S S S S S S S S S S S    S S S S S S S S S S S S S S S S  
----------------------------------|----------------------------------|
------------------3-3-3-3-3-3-3-3-|--4-4-4-4-4-4-4-4-3-3-3-3-3-3-3-3-|
----------------------------------|----------------------------------|
--5-5-5-5-5-5-5-5-----------------|----------------------------------|
----------------------------------|----------------------------------|
----------------------------------|----------------------------------|


  S S S S S S S S S S S S S S S S    S S S S S S S S S S S S S S S S  
----------------------------------|----------------------------------|
----------------------------------|----------------------------------|
--5-5-5-5-5-5-5-5-3-3-3-3-3-3-3-3-|--2-2-2-2-------------------------|
----------------------------------|----------3-3-3-3-5-5-5-5-5-5-5-5-|
----------------------------------|----------------------------------|
----------------------------------|----------------------------------|


  S S S S S S S S S S S S S S S S    S S S S S S S S S S S S S S S S  
----------------------------------|----------------------------------|
------------------3-3-3-3-3-3-3-3-|--4-4-4-4-4-4-4-4-3-3-3-3-3-3-3-3-|
----------------------------------|----------------------------------|
--5-5-5-5-5-5-5-5-----------------|----------------------------------|
----------------------------------|----------------------------------|
----------------------------------|----------------------------------|


  S S S S S S S S S S S S S S S S    S S S S S S S S S S S S S S S S  
----------------------------------|----------------------------------|
----------3-3-3-3-----------------|----------------------------------|
--5-5-5-5---------3-3-3-3-3-3-3-3-|--2-2-2-2-------------------------|
----------------------------------|----------3-3-3-3-5-5-5-5-5-5-5-5-|
----------------------------------|----------------------------------|
----------------------------------|----------------------------------|


  W                   H.           Q        S S S S S S S S S S S S S S S S  
-------------------|---------------------|----------------------------------|
-------------------|---------------------|----------------------------------|
--5----------------|--L------------------|------------------3-3-3-3-3-3-3-3-|
--5----------------|--L------------------|--5-5-5-5-5-5-5-5-----------------|
--3----------------|--L------------3S----|----------------------------------|
-------------------|---------------------|----------------------------------|


  S S S S S S S S S S S S S S S S    S S S S S S S S S S S S S S S S  
----------------------------------|----------------------------------|
----------------------------------|----------------------------------|
--5-5-5-5-2-2-2-2-3-3-3-3-3-3-3-3-|--5-5-5-5-2-2-2-2-3-3-3-3-3-3-3-3-|
----------------------------------|----------------------------------|
----------------------------------|----------------------------------|
----------------------------------|----------------------------------|


  S S S S S S S S S S S S S S S S    S S S S S S S S S S S S S S S S  
----------------------------------|----------------------------------|
----------------------------------|----------------------------------|
--2-2-2-2-3-3-3-3-----------------|------------------3-3-3-3-3-3-3-3-|
------------------5-5-5-5-5-5-5-5-|--5-5-5-5-5-5-5-5-----------------|
----------------------------------|----------------------------------|
----------------------------------|----------------------------------|


  S S S S S S S S S S S S S S S S    S S S S S S S S S S S S S S S S  
----------------------------------|----------------------------------|
----------------------------------|----------------------------------|
--5-5-5-5-2-2-2-2-3-3-3-3-3-3-3-3-|--5-5-5-5-2-2-2-2-3-3-3-3-3-3-3-3-|
----------------------------------|----------------------------------|
----------------------------------|----------------------------------|
----------------------------------|----------------------------------|


  S S S S S S S S S S S S S S S S    S S S S S S S S S S S S S S S S  
----------------------------------|----------------------------------|
----------------------------------|------------------3-3-3-3-3-3-3-3-|
--2-2-2-2-3-3-3-3-----------------|----------------------------------|
------------------5-5-5-5-5-5-5-5-|--5-5-5-5-5-5-5-5-----------------|
----------------------------------|----------------------------------|
----------------------------------|----------------------------------|


  S S S S S S S S S S S S S S S S    S S S S S S S S S S S S S S S S  
----------------------------------|----------------------------------|
--4-4-4-4---------3-3-3-3-3-3-3-3-|----------------------------------|
----------5-5-5-5-----------------|--3-3-3-3---------2-2-2-2-2-2-5-5-|
----------------------------------|----------5-5-5-5-----------------|
----------------------------------|----------------------------------|
----------------------------------|----------------------------------|


  S S S S S S S S S S S S S S S S    S S S S S S S S S S S S S S S S  
----------------------------------|----------------------------------|
--3-3-3-3-------------------------|------------------3-3-3-3-3-3-3-3-|
----------3-3-3-3-2-2-2-2-2-2-2-2-|----------------------------------|
----------------------------------|--5-5-5-5-5-5-5-5-----------------|
----------------------------------|----------------------------------|
----------------------------------|----------------------------------|


  S S S S S S S S S S S S S S S S    S S S S S S S S S S S S S S S S  
----------------------------------|----------------------------------|
--4-4-4-4---------3-3-3-3---------|--3-3-3-3-------------------------|
----------5-5-5-5---------3-3-5-5-|----------3-3-3-3-2-2-2-2---------|
----------------------------------|--------------------------3-3-3-3-|
----------------------------------|----------------------------------|
----------------------------------|----------------------------------|


  S S S S S S S S S S S S S S S S    Q    S S S S Q    S S S S  
----------------------------------|----------------------------|
----------------------------------|----------------------------|
--2-2-2-2-3-3-3-3-----------------|----------------------------|
------------------5-5-5-5-5-5-5-5-|--5-------------------------|
----------------------------------|--5------------5------------|
----------------------------------|--3----3-3-3-3-3----3-3-3-3-|


  Q    S S S S Q    S S S S    Q    S S S S Q    S S S S  
----------------------------|----------------------------|
----------------------------|----------------------------|
----------------------------|----------------------------|
--5-------------------------|--5-------------------------|
--5------------5------------|--5------------5------------|
--3----3-3-3-3-3----3-3-3-3-|--3----3-3-3-3-3----3-3-3-3-|


  Q    Q    Q    S S S S    Q    S S S S H           Q    S S S S Q    S S S S  
-------------------------|------------------------|----------------------------|
-------------------------|------------------------|----------------------------|
-------------------------|--3---------------------|----------------------------|
--3----3----3------------|--3------------7--------|----------------------------|
--3----3----3----1-1-1-1-|--1----5-5-5-5-5--------|--5------------5------------|
--1----1----1------------|------------------------|--3----3-3-3-3-3----3-3-3-3-|


  Q    S S S S Q    S S S S    Q    S S S S Q    S S S S  
----------------------------|----------------------------|
----------------------------|----------------------------|
----------------------------|----------------------------|
----------------------------|----------------------------|
--5------------5------------|--5------------5------------|
--3----3-3-3-3-3----3-3-3-3-|--3----3-3-3-3-3----3-3-3-3-|


  Q    Q    Q    S S S S    Q    S S S S H           Q    E  E  Q    E  E   
-------------------------|------------------------|------------------------|
-------------------------|------------------------|-------------6----------|
-------------------------|--3---------------------|------------------------|
--3----3----3------------|--3------------7--------|--7---------------------|
--3----3----3----1-1-1-1-|--1----5-5-5-5-5--------|------------------------|
--1----1----1------------|------------------------|-------5--5-------5--5--|


  Q    E  E  Q    E  E     Q    E  E  Q    E  E     Q    Q    Q    E  E   
------------------------|------------------------|-----------------------|
-------------6----------|-------------6----------|-----------------------|
------------------------|------------------------|-----------------------|
--7---------------------|--7---------------------|--5----5----5----------|
------------------------|------------------------|--5----5----5----3--3--|
-------5--5-------5--5--|-------5--5-------5--5--|--3----3----3----------|


  Q    E  E  H           Q    E  E  Q    E  E     Q    E  E  Q    E  E   
----------------------|------------------------|------------------------|
----------------------|-------------6----------|-------------6----------|
--5-------------------|------------------------|------------------------|
--5----------9--------|--7---------------------|--7---------------------|
--3----7--7--7--------|------------------------|------------------------|
----------------------|-------5--5-------5--5--|-------5--5-------5--5--|


  Q    E  E  Q    E  E     Q    Q    Q    E  E     Q    E  E  H         
------------------------|-----------------------|----------------------|
-------------6----------|-----------------------|----------------------|
------------------------|-----------------------|--5-------------------|
--7---------------------|--5----5----5----------|--5----------9--------|
------------------------|--5----5----5----3--3--|--3----7--7--7--------|
-------5--5-------5--5--|--3----3----3----------|----------------------|


       |--3--|       |--3--|          |--3--|       |--3--|   
  Q    E  E  E  Q    E  E  E     Q    E  E  E  Q    E  E  E   
------------------------------|------------------------------|
----------------6-------------|----------------6-------------|
------------------------------|------------------------------|
--7---------------------------|--7---------------------------|
------------------------------|------------------------------|
-------5--5--5-------5--5--5--|-------5--5--5-------5--5--5--|


       |--3--|       |--3--|                                                    
  Q    E  E  E  Q    E  E  E     Q    Q    H           Q    S S E  Q    S S E   
------------------------------|---------------------|--------------------------|
----------------6-------------|---------------------|--5----5-3-----------3-5--|
------------------------------|---------------------|-----------5--4----5------|
--7---------------------------|--5----5----5--------|--------------------------|
------------------------------|--5----5----5--------|--------------------------|
-------5--5--5-------5--5--5--|--3----3----3--------|--------------------------|


       |--3--|       |--3--|          |--3--|       |--3--|   
  Q    E  E  E  Q    E  E  E     Q    E  E  E  Q    E  E  E   
------------------------------|------------------------------|
----------------6-------------|----------------6-------------|
------------------------------|------------------------------|
--7---------------------------|--7---------------------------|
------------------------------|------------------------------|
-------5--5--5-------5--5--5--|-------5--5--5-------5--5--5--|


       |--3--|       |--3--|                                                 
  Q    E  E  E  Q    E  E  E     Q    Q    H           Q    S S E  H         
------------------------------|---------------------|-----------------------|
----------------6-------------|---------------------|--5----5-3-------------|
------------------------------|---------------------|-----------5--4--------|
--7---------------------------|--5----5----5--------|-----------------------|
------------------------------|--5----5----5--------|-----------------------|
-------5--5--5-------5--5--5--|--3----3----3--------|-----------------------|


  W                   W                   H           Q    E  E  H         
-------------------|-------------------|-----------|----------------------|
-------------------|-------------------|-----------|----------------------|
--5----------------|-------------------|-----------|--7----7--5--7--------|
--5----------------|--3----------------|-----------|----------------------|
--3----------------|--3----------------|-----------|----------------------|
-------------------|--1----------------|-----------|----------------------|


  Q    Q    Q     Q       Q    E  E  H           Q    Q     Q      Q     
-----------------------|--5----5-----5--------|--L---------10S----12----|
------------6S----8----|----------8-----------|-------8-----------------|
--L----5---------------|----------------------|-------------------------|
-----------------------|----------------------|-------------------------|
-----------------------|----------------------|-------------------------|
-----------------------|----------------------|-------------------------|


  Q    E  E  Q    E   E     Q    E   E  Q    Q       Q    E  E  H         
--8----8--7--8----8--10--|--7----7S--8--5---------|--5----5-----5--------|
-------------------------|-------------------8----|----------8-----------|
-------------------------|------------------------|----------------------|
-------------------------|------------------------|----------------------|
-------------------------|------------------------|----------------------|
-------------------------|------------------------|----------------------|


  H        Q    Q       Q    E  E  H           Q    Q    Q     Q     
--L------------------|----------------------|-----------------------|
-----------6----5----|----------------------|------------6S----8----|
---------------------|--7----7--5--7--------|--L----5---------------|
---------------------|----------------------|-----------------------|
---------------------|----------------------|-----------------------|
---------------------|----------------------|-----------------------|


  Q    E  E  H           H        H           Q    E  E  Q    Q     
--5----5-----5--------|--L--------8--------|-----------------------|
----------8-----------|--------------------|--8----8--6--8---------|
----------------------|--------------------|------------------7----|
----------------------|--------------------|-----------------------|
----------------------|--------------------|-----------------------|
----------------------|--------------------|-----------------------|


  Q    E  E  Q    Q         Q    E  E  H           W                 
-----------------------|------------------------|-------------------|
--6----6--5--6---------|--3g5-------------------|-------------------|
------------------7----|---------7--5--7--------|--L----------------|
-----------------------|------------------------|-------------------|
-----------------------|------------------------|-------------------|
-----------------------|------------------------|-------------------|


  Q    E  E  H           Q    Q    Q     Q       Q    E  E  H         
----------------------|-----------------------|--5----5-----5--------|
----------------------|------------6S----8----|----------8-----------|
--7----7--5--7--------|--L----5---------------|----------------------|
----------------------|-----------------------|----------------------|
----------------------|-----------------------|----------------------|
----------------------|-----------------------|----------------------|


  Q    Q     Q      Q       Q    E  E  Q    E   E     Q    S  S  E  Q    Q     
--L---------10S----12----|--8----8--7--8----8--10--|--7----7h-8p-7--5---------|
-------8-----------------|-------------------------|---------------------8----|
-------------------------|-------------------------|--------------------------|
-------------------------|-------------------------|--------------------------|
-------------------------|-------------------------|--------------------------|
-------------------------|-------------------------|--------------------------|


   Q     T   T   S E  H           H        Q    E  E     Q    E  E  H         
----------------------5--------|--L--------5----------|----------------------|
--10----10h-12p-10-8-----------|----------------6--5--|----------------------|
-------------------------------|----------------------|--7----7--5--7--------|
-------------------------------|----------------------|----------------------|
-------------------------------|----------------------|----------------------|
-------------------------------|----------------------|----------------------|


  Q    Q    Q     Q       Q    E  E  H           H        H          
-----------------------|--5----5-----5--------|--L--------8S--------|
------------6S----8----|----------8-----------|---------------------|
--L----5---------------|----------------------|---------------------|
-----------------------|----------------------|---------------------|
-----------------------|----------------------|---------------------|
-----------------------|----------------------|---------------------|


  Q    E  E  Q    Q       Q    E  E  Q    Q         Q    E  E  H         
-----------------------|-----------------------|------------------------|
--8----8--6--8---------|--6----6--5--6---------|--3g5-------------------|
------------------7----|------------------7----|---------7--5--7--------|
-----------------------|-----------------------|------------------------|
-----------------------|-----------------------|------------------------|
-----------------------|-----------------------|------------------------|


  W                   Q    E  E  H           W                 
-------------------|----------------------|-------------------|
-------------------|----------------------|-------------------|
--L----------------|--7----7--5--7--------|--L----------------|
-------------------|----------------------|-------------------|
-------------------|----------------------|-------------------|
-------------------|----------------------|-------------------|


  Q    E  E  H           W                   Q    E  E  H         
----------------------|-------------------|----------------------|
--5----5--------------|-------------------|----------------------|
----------5--7--------|--L----------------|--5----5--7-----------|
----------------------|-------------------|-------------8--------|
----------------------|-------------------|----------------------|
----------------------|-------------------|----------------------|


  W                   Q    E  E  H           W                 
-------------------|----------------------|-------------------|
-------------------|----------------------|-------------------|
-------------------|----------------------|-------------------|
--L----------------|--7----7-----5--------|--L----------------|
-------------------|----------8-----------|-------------------|
-------------------|----------------------|-------------------|


  Q    E  E  H           W                   Q    E  E  H         
----------------------|-------------------|----------------------|
----------------------|-------------------|--5----5--------------|
--7----7--5--7--------|--L----------------|----------5--7--------|
----------------------|-------------------|----------------------|
----------------------|-------------------|----------------------|
----------------------|-------------------|----------------------|


  H        Q    E  E     H        E   E   E  E     W                 
----------------------|-------------------------|-------------------|
----------------------|-------------------------|-------------------|
--L--------5----5--7--|-------------------------|-------------------|
----------------------|--8--------7h--8p--7-----|--5----------------|
----------------------|----------------------8--|-------------------|
----------------------|-------------------------|-------------------|


  W                   S S S S S S S S S S S S S S S S  
-------------------|----------------------------------|
-------------------|----------------------------------|
-------------------|------------------3-3-3-3-3-3-3-3-|
--L----------------|--5-5-5-5-5-5-5-5-----------------|
-------------------|----------------------------------|
-------------------|----------------------------------|


  S S S S S S S S S S S S S S S S    S S S S S S S S S S S S S S S S  
----------------------------------|----------------------------------|
----------------------------------|----------------------------------|
--5-5-5-5-2-2-2-2-3-3-3-3-3-3-3-3-|--5-5-5-5-2-2-2-2-3-3-3-3-3-3-3-3-|
----------------------------------|----------------------------------|
----------------------------------|----------------------------------|
----------------------------------|----------------------------------|


  S S S S S S S S S S S S S S S S    S S S S S S S S S S S S S S S S  
----------------------------------|----------------------------------|
----------------------------------|----------------------------------|
--2-2-2-2-3-3-3-3-----------------|------------------3-3-3-3-3-3-3-3-|
------------------5-5-5-5-5-5-5-5-|--5-5-5-5-5-5-5-5-----------------|
----------------------------------|----------------------------------|
----------------------------------|----------------------------------|


  S S S S S S S S S S S S S S S S    S S S S S S S S S S S S S S S S  
----------------------------------|----------------------------------|
----------------------------------|----------------------------------|
--5-5-5-5-2-2-2-2-3-3-3-3-3-3-3-3-|--5-5-5-5-2-2-2-2-3-3-3-3-3-3-3-3-|
----------------------------------|----------------------------------|
----------------------------------|----------------------------------|
----------------------------------|----------------------------------|


  S S S S S S S S S S S S S S S S    S S S S S S S S S S S S S S S S  
----------------------------------|----------------------------------|
----------------------------------|------------------3-3-3-3-3-3-3-3-|
--2-2-2-2-3-3-3-3-----------------|----------------------------------|
------------------5-5-5-5-5-5-5-5-|--5-5-5-5-5-5-5-5-----------------|
----------------------------------|----------------------------------|
----------------------------------|----------------------------------|


  S S S S S S S S S S S S S S S S    S S S S S S S S S S S S S S S S  
----------------------------------|----------------------------------|
--4-4-4-4---------3-3-3-3-3-3-3-3-|----------------------------------|
----------5-5-5-5-----------------|--3-3-3-3---------2-2-2-2-2-2-5-5-|
----------------------------------|----------5-5-5-5-----------------|
----------------------------------|----------------------------------|
----------------------------------|----------------------------------|


  S S S S S S S S S S S S S S S S    S S S S S S S S S S S S S S S S  
----------------------------------|----------------------------------|
--3-3-3-3-------------------------|------------------3-3-3-3-3-3-3-3-|
----------3-3-3-3-2-2-2-2-2-2-2-2-|----------------------------------|
----------------------------------|--5-5-5-5-5-5-5-5-----------------|
----------------------------------|----------------------------------|
----------------------------------|----------------------------------|


  S S S S S S S S S S S S S S S S    S S S S S S S S S S S S S S S S  
----------------------------------|----------------------------------|
--4-4-4-4---------3-3-3-3---------|--3-3-3-3-------------------------|
----------5-5-5-5---------3-3-5-5-|----------3-3-3-3-2-2-2-2---------|
----------------------------------|--------------------------3-3-3-3-|
----------------------------------|----------------------------------|
----------------------------------|----------------------------------|


  S S S S S S S S S S S S S S S S     Q     Q     Q     E   E   
----------------------------------|----------------------------|
----------------------------------|--------------------11--13--|
--2-2-2-2-3-3-3-3-----------------|--15----12----12------------|
------------------5-5-5-5-5-5-5-5-|----------------------------|
----------------------------------|----------------------------|
----------------------------------|----------------------------|


   E   E   E   E   Q     E   E      E    E   E   E   Q     E   E   
------12------------------------|---------------------------------|
--15------15--13--15----11--13--|--15h--16--15--13--15------------|
--------------------------------|-------------------------15--15--|
--------------------------------|---------------------------------|
--------------------------------|---------------------------------|
--------------------------------|---------------------------------|


   S   S   E     E   E   H            Q     Q     Q     E   E   
----------------------------------|----------------------------|
----------------------------------|--------------------11--13--|
--14h-15-(15)p--12------12--------|--15----12----12------------|
--------------------15------------|----------------------------|
----------------------------------|----------------------------|
----------------------------------|----------------------------|


   E   E   E   E   Q     E   E      S   S   E    E    E   Q     Q     
------12------------------------|------------------------------------|
--15------15--13--15----11--13--|--15h-16-(16)--13b---L--15----------|
--------------------------------|------------------------------15----|
--------------------------------|------------------------------------|
--------------------------------|------------------------------------|
--------------------------------|------------------------------------|


   S   S   E     E   E   H            Q     Q     Q     E   E   
----------------------------------|----------------------------|
----------------------------------|--------------------11--13--|
--14h-15-(15)p--12------12--------|--15----12----12------------|
--------------------15------------|----------------------------|
----------------------------------|----------------------------|
----------------------------------|----------------------------|


   E   E   E   E   Q     E   E      E    E   E   E   Q     E   E   
------12------------------------|---------------------------------|
--15------15--13--15----11--13--|--15h--16--15--13--15------------|
--------------------------------|-------------------------15--15--|
--------------------------------|---------------------------------|
--------------------------------|---------------------------------|
--------------------------------|---------------------------------|


   S   S   E     E   E   H            Q     Q     Q     E   E   
----------------------------------|----------------------------|
----------------------------------|--------------------11--13--|
--14h-15-(15)p--12------12--------|--15----12----12------------|
--------------------15------------|----------------------------|
----------------------------------|----------------------------|
----------------------------------|----------------------------|


   E   E   E   E   Q     E   E      S   S   E    E   E   E   E   E   E   
------12------------------------|---------------------------------------|
--15------15--13--15----11--13--|--15h-18-(18)--15--16--15--------------|
--------------------------------|---------------------------15--14--15--|
--------------------------------|---------------------------------------|
--------------------------------|---------------------------------------|
--------------------------------|---------------------------------------|


   E   E   E   E   Q    Q      
-----------------------------||
--13-------------------------||
------15--14------12----x----||
--------------15-------------||
-----------------------------||
-----------------------------||




Duration Legend
---------------
W - whole
H - half
Q - quarter
E - 8th
S - 16th
T - 32nd
X - 64th
. - note dotted
|-n-|  - n-tuplets


Tablature Legend
----------------
L - tied note
x - dead note
g - grace note
(n) - ghost note
> - accentuded note
NH - natural harmonic
AH - artificial harmonic
TH - tapped harmonic
SH - semi harmonic
PH - pitch harmonic
h - hammer on
p - pull off
b - bend
br - bendRelease
pb - preBend
pbr - preBendRelease
brb - bendReleaseBend
\n/ - tremolo bar dip
\n - tremolo bar dive
-/n - tremolo bar Release up
/n\ - tremolo bar inverted dip
/n - tremolo bar return
-\n - tremolo bar Release down
S - shift slide
s - legato slide
/ -  slide into from below or out of upwards
\ -  slide into from above or out of downwards
~ - vibrato
W - wide vibrato
tr - trill
TP - tremolo picking
T - tapping
S - slap
P - pop
< - fade in
^ - brush up
v - brush down
Tap to rate this tab
 
# A B C D E F G H I J K L M N O P Q R S T U V W X Y Z