Guitaretab - guitar tabs
Song name
# A B C D E F G H I J K L M N O P Q R S T U V W X Y Z
Home / E / Enslaved / Isa tab

Enslaved - Isa tab

#------------------------------------PLEASE  NOTE----------------------------------------------#
#This file is the author's own work and represents their interpretation of the #
#song. You may only use this file for private study, scholarship, or research#
#----------------------------------------------------------------------------------------------#

Band   Enslaved
Album: Isa 
Song:  Isa 

Transcribed By: Elathen
Email:         ningalia87@yahoo.com

Copyright (c)  Tabu Recordings
Version 1.0 -  13/12/2007

Tuning E A D G B E


. - palm mute / - slide up to
 - slide down to ~ - vibrato
h - hammer on p - pull off
, - slight palm mute () - ghost note, sustained note
" " tremolo note <> - Trill

Suffixes for bend
f - full bend h - half bend
ph - pinched harmonic q - quarter bend
t - tap bend * - see comment
^ - Hold bend r - release bend
x  Staccato ~ - vibrato bend
. - palm mute / - slide up to
 - slide down to ~ - vibrato
h - hammer on p - pull off
, - slight palm mute () - ghost note, sustained note
" " tremolo note <> - Trill

Note: Very low guitars due to this the tab isn't perfect.The last riff is probably wrong.
[ Tab from: http://www.guitaretab.com/e/enslaved/100308.html ]
 
Riff 1                             Fig.1            Fig.2
|---------------------------------|----------------|-------------------|
|---------------------------------|----------------|-------------------| 
|---2-2-2-2--1-1-1--2 2-2-2-------|----2 ----------|-------------------| 
|---3-3-3-3--2-2-2--3-3-3-3-------|----2-----3-----|---3-3-3-3-3-3-----|
|---0-0-0-0--0-0-0--0-0-0-0-------|----0---- 3-----|---3-3-3-3-3-3-----|
|---------------------------------|----------1-----|---1-1-1-1-1-1-----|

Riff 2
|---------------4-4-4-4-4---------------------------------|
|---4-4-4-4-----4-4-4-4-4-------3-3-3---2-2-2-------------| 
|---4-4-4-4-----2-2-2-2-2-------3-3-3---2-2-2-------------| 
|---2-2-2-2---------------------1-1-1---0-0-0-------------|  
|---------------------------------------------------------|
|---------------------------------------------------------|

Riff 3    Use tremolo picking
|----------------------------------------------------|
|----------------------------------------------------| 
|-5----9--------4----1-----2--4-----1----0-----------| 
|-7----7--------6----3-----0--2-----3----2-----------|  
|----------------------------------------------------|
|----------------------------------------------------|

Related for Isa tab