Song name
# A B C D E F G H I J K L M N O P Q R S T U V W X Y Z

Enslaved - Isa tab

-------------------------------------------------------------------------------
			     ISA - Enslaved
-------------------------------------------------------------------------------
Tabbed by: Jeff Kroeger (the_jackyl)
(10/2009)
Email: xxthejackalxx@gmail.com

Tuning: standard

*******************************************************************************

VERSE:
e|-----------------|-----------------|-----------------|-----------------|
B|-----------------|-----------------|-----------------|-----------------|
G|-----------------|-----------8-8---|-----------------|---1-1-1-1-1-1-1-|
D|-7-7-7-6-6-7-7-7-|-7-7-7-6-6-8-8-7-|-7-7-7-6-6-6-6-6-|-6-3-3-3-3-3-3-3-|
A|-0-0-0-8-8-0-0-0-|-0-0-0-8-8-6-6-0-|-0-0-0-6-6-6-6-6-|-6-3-3-3-3-3-3-3-|
E|---------------5-|-5-5-5-4-4-------|-----------------|---1-1-1-1-1-1-1-|

(X3)

e|-----------------|-----------------|-----------------|-----------------|
B|-----------------|-----------------|-----------------|-----------------|
G|-----------------|-----------8-8---|-----------------|---6-6-6-6-6-6-6-|
D|-7-7-7-6-6-7-7-7-|-7-7-7-6-6-8-8-7-|-7-7-7-6-6-6-6-6-|-6-7-7-7-7-7-7-7-|
A|-0-0-0-8-8-0-0-0-|-0-0-0-8-8-6-6-0-|-0-0-0-6-6-6-6-6-|-6-7-7-7-7-7-7-7-|
E|---------------5-|-5-5-5-4-4-------|-----------------|---5-5-5-5-5-5-5-|

(X1)

During second verse, the last bar of the 16 bar figure sounds more like this:

e|------------------|
B|----2-2-2-2-2-2-2-|
G|----2-2-2-2-2-2-2-|
D|---/2-2-2-2-2-2-2-|
A|-0----------------|
E|------------------|


CHORUS:
(Rhythm)
e|-2-2-2-2-2-2-2-2-|-2-2-2-2-2-2-2-2-|-----------------|------------------|
B|-2-2-2-2-2-2-2-2-|-2-2-2-2-2-2-2-2-|-6-6-6-6-6-6-6-6-|------------------|
G|-2-2-2-2-2-2-2-2-|-2-2-2-2-2-2-2-2-|-7-7-7-7-7-7-7-7-|10-10-10-10-10-10-|
D|-0-0-0-0-0-0-0-0-|-0-0-0-0-0-0-0-0-|-7-7-7-7-7-7-7-7-|10-10-10-10-10-10-|
A|-0-0-0-0-0-0-0-0-|-0-0-0-0-0-0-0-0-|-5-5-5-5-5-5-5-5-|-8--8--8--8--8--8-|
E|-0-0-0-0-0-0-0-0-|-0-0-0-0-0-0-0-0-|-5-5-5-5-5-5-5-5-|-8--8--8--8--8--8-|

e|-2-2-2-2-2-2-2-2-|-2-2-2-2-2-2-2-2-|-----------------|------------------------|
B|-2-2-2-2-2-2-2-2-|-2-2-2-2-2-2-2-2-|-6-6-6-6-6-6-6-6-|------------------------|
G|-2-2-2-2-2-2-2-2-|-2-2-2-2-2-2-2-2-|-7-7-7-7-7-7-7-7-|10-10-10-10-10-10-10-10-|
D|-0-0-0-0-0-0-0-0-|-0-0-0-0-0-0-0-0-|-7-7-7-7-7-7-7-7-|10-10-10-10-10-10-10-10-|
A|-0-0-0-0-0-0-0-0-|-0-0-0-0-0-0-0-0-|-5-5-5-5-5-5-5-5-|-8--8--8--8--8--8ó-8ó-8-|
E|-0-0-0-0-0-0-0-0-|-0-0-0-0-0-0-0-0-|-5-5-5-5-5-5-5-5-|-8--8--8--8--8--8ó-8ó-8-|

(X2)

(Lead)
e|-------------------------|-12-12-12-12-12-12-12-12-|
B|-14-14-14-14-14-14-14-14-|-14-14-14-14-14-14-14-14-|
G|-13-13-13-13-13-13-13-13-|-13-13-13-13-13-13-13-13-|
D|-------------------------|-------------------------|
A|-------------------------|-------------------------|
E|-------------------------|-------------------------|

e|-10-10-10-10-10-10-10-10-|-12-12-12-12-12-12-|
B|-13-13-13-13-13-13-13-13-|-11-11-11-11-11-11-|
G|-------------------------|-------------------|
D|-------------------------|-------------------|
A|-------------------------|-------------------|
E|-------------------------|-------------------|

e|-------------------------|-12-12-12-12-12-12-12-12-|
B|-14-14-14-14-14-14-14-14-|-14-14-14-14-14-14-14-14-|
G|-13-13-13-13-13-13-13-13-|-13-13-13-13-13-13-13-13-|
D|-------------------------|-------------------------|
A|-------------------------|-------------------------|
E|-------------------------|-------------------------|

e|-10-10-10-10-10-10-10-10-|-12-12-12-12-12-12-12-12-|
B|-13-13-13-13-13-13-13-13-|-11-11-11-11-11-11-11-11-|
G|-------------------------|-------------------------|
D|-------------------------|-------------------------|
A|-------------------------|-------------------------|
E|-------------------------|-------------------------|

(X2)

BRIDGE:
(Rhythm)

e|-------------------------|-------------------------|
B|-------------------------|-------------------------|
G|-5-5-5-5-5-5-5-5-5-5-5-5-|-------------------------|
D|-5-5-5-5-5-5-5-5-5-5-5-5-|-5-5-5-5-5-5-5-5-5-5-5-5-|
A|-3-3-3-3-3-3-3-3-3-3-3-3-|-5-5-5-5-5-5-5-5-5-5-5-5-|
E|-------------------------|-3-3-3-3-3-3-3-3-3-3-3-3-|

e|-------------------------|-------------------------|
B|-------------------------|-------------------------|
G|-6-6-6-6-6-6-6-6-6-6-6-6-|-------------------------|
D|-6-6-6-6-6-6-6-6-6-6-6-6-|-2-2-2-2-2-2-2-2-2-2-2-2-|
A|-4-4-4-4-4-4-4-4-4-4-4-4-|-2-2-2-2-2-2-2-2-2-2-2-2-|
E|-------------------------|-0-0-0-0-0-0-0-0-0-0-0-0-|

(x3)
(Lead)

e|-(8)88888888888(12)1212121212121212121212|
B|-----------------------------------------|
G|-----------------------------------------|
D|-----------------------------------------|
A|-----------------------------------------|
E|-----------------------------------------|

e|----------------------------------------------------|
B|(12)1212121212121212121212--------------------------|
G|--------------------------(12)1212121212121212121212|
D|----------------------------------------------------|
A|----------------------------------------------------|
E|----------------------------------------------------|

e|----------------------------------------------------|
B|--------------------------(13)1313131313131313131313|
G|(12)1212121212121212121212--------------------------|
D|----------------------------------------------------|
A|----------------------------------------------------|
E|----------------------------------------------------|

e|---------------------------------------------------|
B|---------------------------------------------------|
G|(12)1212121212121212121212(11)111111111111111111111|
D|---------------------------------------------------|
A|---------------------------------------------------|
E|---------------------------------------------------|

The parentheses are just so you donít get confused as to which fret Iím talking about

(x3)


| /  slide up
| \  slide down
| h  hammer-on
| p  pull-off
| ~  vibrato
| +  harmonic
| x  Mute note
===============================================================================

Tap to rate this tab
# A B C D E F G H I J K L M N O P Q R S T U V W X Y Z