Enslaved - Lightening tab

-------------------------------------------------------------------------------
			     Enslaved-Lightening (intro)
-------------------------------------------------------------------------------
Tabbed by: erixcor
Email:

Tuning: D Standard (DGCFAD)

D|---------------------------------------------------------|
A|-17-17-------15-15-------12-12------------10-------------|
F|-------16-16-------14-14-------12-9-11-12----11-12p11----|
C|------------------------------------------------------12-|
G|---------------------------------------------------------|
D|---------------------------------------------------------|



D|----------------------------------------------15-17-15-13-15--|b
A|-17-17-------15-15-------------------15-17-18-----------------|
F|-------16-16-------14-14-12-14-16-18--------------------------|
C|--------------------------------------------------------------|
G|--------------------------------------------------------------|
D|--------------------------------------------------------------|

Before 2nd Verse:
D|---------------------------------------------------------|
A|-17-17-------15-15-------12-12------------10-------------|
F|-------16-16-------14-14-------12-9-11-12----11-12p11----|
C|------------------------------------------------------12-|
G|---------------------------------------------------------|
D|---------------------------------------------------------|



D|-------------------------------12----12-14-15-17-17b17-15-17-|
A|-17-17-------15-15-------12-12----12-------------------------|
F|-------16-16-------14-14-------------------------------------|
C|-------------------------------------------------------------|
G|-------------------------------------------------------------|
D|-------------------------------------------------------------|

That's all I got guys, but I didn't see another tab for this here, or anywhere else for 
that matter.

************************************

| /   slide up
| \   slide down
| h   hammer-on
| p   pull-off
| ~   vibrato
| +   harmonic
| x   Mute note
| b   Bend
| pb  Pre-bend
| br  Bend release
| pbr Pre-bend release
| brb Bend release bend

************************************
Tap to rate this tab
 
# A B C D E F G H I J K L M N O P Q R S T U V W X Y Z