Guitaretab - guitar tabs
Song name
# A B C D E F G H I J K L M N O P Q R S T U V W X Y Z

Enslaved - Niunda Heim tab

Enslaved - Niunda Heim

Transcribed by Fredrik Karlsson (Battlescar_psy@hotmail.com)

(8th track of the Satyricon/Enslaved split CD.
Originally from the demo "Yggdrasill")

Riff 1
e[------------------------------------------------------------------]
b[------------------------------------------------------------------]
g[------------------------------------------------------------------]
d[-555566665555----555566664444-------------------------------------]
a[-33334444333366663333444422225555---------------------------------]
E[-------------4444------------3333---------------------------------]

Riff 2
e[------------------------------------------------------------------]
b[------------------------------------------------------------------]
g[------------------------------------------------------------------]
d[-555566555566555566-----------------------------------------------]
a[-333344333344333344-----------------------------------------------]
E[------------------------------------------------------------------]

Riff 3
e[----------------|-------------------------------------------------]
b[----------------|-------------------------------------------------]
g[---7-5----------|-------------------------------------------------]
d[-5-----8--------|---7-5-------------------------------------------]
a[---------33336v-|-5-----8-----------------------------------------]
E[----------------|---------33336v----------------------------------]
[ Tab from: http://www.guitaretab.com/e/enslaved/38360.html ]
Riff 4
e[-------------------------|----------------------------------------]
b[-------------------------|----------------------------------------]
g[-------------------7-----|----------------------------------------]
d[---5-4-1-------5-4---3-2-|-------------------7--------------------]
a[-3-------3-2-3-----------|---5-4-1-------5-4---3-2----------------]
E[-------------------------|-3-------3-2-3--------------------------]

Riff 5
e[------------------------------------------------------------------]
b[------------------------------------------------------------------]
g[------------------------------------------------------------------]
d[-55555555666666664444444422224444---------------------------------]
a[-33333333444444442222222200002222---------------------------------]
E[------------------------------------------------------------------]

Riff 6
e[------------------------------------------------------------------]
b[------------------------------------------------------------------]
g[------------------------------------------------------------------]
d[-55555555666666665555555566664444---------------------------------]
a[-33333333444444443333333344442222---------------------------------]
E[------------------------------------------------------------------]

Riff 7
e[------------------------------------------------------------------]
b[------------------------------------------------------------------]
g[------------------------------------------------------------------]
d[-9-8-5-4-9-8-5-4-1-2----------------------------------------------]
a[------------------------------------------------------------------]
E[------------------------------------------------------------------]
Related for Niunda Heim tab