Song name
# A B C D E F G H I J K L M N O P Q R S T U V W X Y Z

Enslaved - I Lenker Til Ragnarok tab

Enslaved - I Lenker Til Ragnarok (From "Blodhemn")

Transcribed by Fredrik Karlsson (aka Psycho). Battlescar_psy@hotmail.com

Riff 1
e[-------------------------|----------------------------------------]
b[---8-----4-----3-----7---|---8-----4-----1-----3------------------]
g[-9-9-9-5-5-5-4-4-4-8-8-8-|-9-9-9-5-5-5-2-2-2-4-4-4----------------]
d[-9-9-9-5-5-5-4-4-4-8-8-8-|-9-9-9-5-5-5-2-2-2-4-4-4----------------]
a[-7---7-3---3-2---2-6---6-|-7---7-3---3-0---0-2---2----------------]
E[-------------------------|----------------------------------------]

Riff 2 (pick fast)    (play this part the last time)
e[-----------------|------------------------------------------------]
b[-----------------|------------------------------------------------]
g[---------------5-|---------------5--------------------------------]
d[---3-6-3---3-6---|---3-6-3---3-6---6-5----------------------------]
a[-1-------1-------|-1-------1--------------------------------------]
E[-----------------|------------------------------------------------]

Riff 3 (pick fast)
e[------------------|-----------------------------------------------]
b[------------------|-----------------------------------------------]
g[------------------|-------------55555-----------------------------]
d[-3333555566665555-|-3333555566663333-6----------------------------]
a[-1111333344443333-|-111133334444------5---------------------------]
E[------------------|-----------------------------------------------]

Riff 4
e[------------------------------------------------------------------]
b[------------------------------------------------------------------]
g[-2-2-2-2-2-3-5-6--------------------------------------------------]
d[-2-2-2-2-2-3-5-6--------------------------------------------------]
a[-0-0-0-0-0-1-3-4--------------------------------------------------]
E[------------------------------------------------------------------]
Tap to rate this tab
# A B C D E F G H I J K L M N O P Q R S T U V W X Y Z