Song name
# A B C D E F G H I J K L M N O P Q R S T U V W X Y Z

Enslaved - Loke tab

Enslaved: Loke
Transcribed by Skjeld

--------------------------------------------------
--------------------------------------------------
-----3--1--4-----3--1---------------3--11--4------
-----------------------1--------------------------
--2-----------2-------------------2---------------
--0-----------0-------------------0---------------
                       Play it in an other ryhthm

--------------------------------------------------
--------------------------------------------------
--------------------------------------------------
------9--12--10--------9--7--10-------------------
------7--10---8--------7--5---8-------------------
--0----------------0------------------------------
 p.m.             p.m. 
                            Later play it faster

--------------------------------------------------
--------------------------------------------------
-----5--3--6-----5--3-----------------------------
-----3--1--4-----3--1--3--------------------------
--2-----------2--------1--------------------------
--0-----------0-----------------------------------

--------------------------------------------------
--------------------------------------------------
--------------------------------------------------
--------7--10-------9\12--12--12/10--10---10\14---
--2--(2)--5---8----2--7\10--10--10/-8----8---8\12-
--0--(0)-----------0------------------------------
  () Only played once 

--------------------------------------------------
--------------------------------------------------
--------------------------------------------------
-----9--10---------12/------9--10---------6--8--7-
--2--7---8--------10/----2--7---8---------4--6--5-
--0---------0--0---------0---------0--0-----------
             p.m.                   p.m.
Tap to rate this tab
# A B C D E F G H I J K L M N O P Q R S T U V W X Y Z