Song name
# A B C D E F G H I J K L M N O P Q R S T U V W X Y Z

Enslavement Of Beauty - I Dedicate My Beauty To The Stars tab

This is the intro to, in my opinion, Enslavement of Beauty's best songs.. 
It goes like this, play it with passion ;)


(play twice, second time while singing)
e:----6-6-4-1-2-2-2-1-----6-7-4-4-4-6-7-6------------|
b:--4-----------------2-4----------------------------|
g:---------------------------------------------------|
d:---------------------------------------------------|
a:---------------------------------------------------|
E:---------------------------------------------------|

The paths of the hearts

Inscrutable, aye

Consciosly I tresspass

to enervate the energy of day

(sing while playing)
e:--6p4h6-2-4p2h4-2-1--------------------------------|
b:--------------------4------------------------------|
g:----------------------3/4\3h4-3--------------------|
d:---------------------------------------------------|
a:---------------------------------------------------|
E:---------------------------------------------------|

I dedicate my beauty to the stars

(sing while playing)
e:--6p4h6-2-4p2h4-9-6-------------|
b:--------------------------------|
g:--------------------------------|
d:--------------------------------|
a:--------------------------------|
E:--------------------------------|

I soliloquise and kiss my precious stars

e:--6p4h6-2-4p2h4-2-1--------------------------------|
b:--------------------4------------------------------|
g:----------------------3/4\3h4-3--------------------|
d:---------------------------------------------------|
a:---------------------------------------------------|
E:---------------------------------------------------|

I dedicate my suicide to thee

e:--6p4h6-2-4p2h4-9--------------|
b:-------------------------------|
g:-------------------------------|
d:-------------------------------|
a:-------------------------------|
E:-------------------------------|

Soon to drift, blissfully

e:----6-6-4-1-2-2-2-1-----6-7-4-4-4-6-7-6------------|
b:--4-----------------2-4----------------------------|
g:---------------------------------------------------|
d:---------------------------------------------------|
a:---------------------------------------------------|
E:---------------------------------------------------|

contorted, and stabbed with spleen

reminded of a solidary childhood

in between

bleeding images of horror, unveiled


Alack....




Submitted by Astarot AKA Iblistarot (hawthornthegreat@hotmail.com)
Enjoy

Tap to rate this tab
 
# A B C D E F G H I J K L M N O P Q R S T U V W X Y Z