Song name
# A B C D E F G H I J K L M N O P Q R S T U V W X Y Z

Enter Shikari - Return To Energizer tab

Return to energizer by Enter shikari of the Take to the skies album.

Tuning drop Db, C#, Drop D and down half a step or whatever you wanna call it.

As soon as I get a camera Ill probably make a vid to help with the timings and put it on 
coz the timings are VERY confusing in this one.

Btw this is only my second tab so go easy.


Intro (YOU LOOK LIKE LIKE YOU RENTED A SMILE!!)
Eb|------------|--------------|--------------|-------------|--------------|
Bb|------------|--------------|--------------|-------------|--------------|
Gb|------------|--------------|--------------|-------------|--------------|
Db|--12--7--8-8|--12--7--8-8-8|--12--7--8-8-8|--12--7--8-8-|--12--7--8-8-8|
Ab|--12--7--8-8|--12--7--8-8-8|--12--7--8-8-8|--12--7--8-8-|--12--7--8-8-8|
Db|--12--7--8-8|--12--7--8-8-8|--12--7--8-8-8|--12--7--8-8-|--12--7--8-8-8|

Eb|-------------|
Bb|-------------|
Gb|-------------|
Db|--12--7--8-8-|
Ab|--12--7--8-8-|
Db|--12--7--8-8-|


Verse pt1 (BURY IT, THATS NOT WHAT YOU WANT!!)
Eb|---------|---------|---------|---------|---------|---------|---------|
Bb|---------|---------|---------|---------|---------|---------|---------|
Gb|---------|---------|---------|---------|---------|---------|---------|
Db|5-555--88|5-555--88|3-333--77|3-333--77|8-888--88|8-888--88|1-111--33|
Ab|5-555----|5-555----|3-333----|3-333----|8-888----|8-888----|1-111----|
Db|5-555----|5-555----|3-333----|3-333----|8-888----|8-888----|1-111----|

Eb|---------|
Bb|---------|
Gb|---------|
Db|1-111--33|
Ab|1-111----|
Db|1-111----|X2


Verse pt2 (screamo i cant interpret)
Eb|--------|
Bb|--------|
Gb|--------|
Db|8-8--555|
Ab|8-8-----|
Db|8-8-----|X4


Verse pt3 (WE STILL HAVE, THE ELEMENT OF SUPRISE)
Eb|----|
Bb|----|
Gb|----|
Db|111-|
Ab|111-|
Db|111-|X4


THE TIMINGS HERE ARE VERY COMPLICATED SO LISTEN TO THE SONG CAREFULY

Prechourus
Eb|------|------|---|------|------|------|---|------|------|---|------|
Bb|------|------|---|------|------|------|---|------|------|---|------|
Gb|2-222-|2-222-|-2-|3-333-|-2-22-|3-333-|-3-|2-222-|2-222-|-3-|3-333-|
Db|0-000-|0-000-|-0-|0-000-|-0-00-|0-000-|-0-|0-000-|0-000-|-0-|0-000-|
Ab|------|------|---|------|------|------|---|------|------|---|------|
Db|------|------|---|------|------|------|---|------|------|---|------|

Eb|--------------|
Bb|--------------|
Gb|-2-22---333333|
Db|-0-00---000000|
Ab|--------------|
Db|--------------|


Chourus (RETURN TO ENERGIZER)
Eb|------------|------|------|------|------|------|-------|-------|------|
Bb|------------|------|------|------|------|------|-------|-------|------|
Gb|------------|------|------|------|------|------|-------|-------|------|
Db|101010101010|777777|555555|333333|111111|333333|5555555|8733h55|111111|
Ab|101010101010|777777|555555|333333|111111|333333|5555555|8733h55|111111|
Db|101010101010|777777|555555|333333|111111|333333|5555555|8733h55|111111|

Eb|------|------|------|------|------------|--------|
Bb|------|------|------|------|------------|--------|
Gb|------|------|------|------|------------|--------|
Db|333333|555555|777777|888888|101010101010|5-------|
Ab|333333|555555|777777|888888|101010101010|5-------|
Db|333333|555555|777777|888888|101010101010|5-------|


Bridge (THATS NOT WHAT YOU WANT!!)
Eb|----------|----------|----------|----------|
Bb|----------|----------|----------|----------|
Gb|----------|----------|----------|----------|
Db|5-5-5-5555|5-5-5-5555|3-3-3-3333|3-3-3-3333|
Ab|5-5-5-5555|5-5-5-5555|3-3-3-3333|3-3-3-3333|
Db|5-5-5-5555|5-5-5-5555|3-3-3-3333|3-3-3-3333|


Fill
Eb|----|----|
Bb|666-|777-|
Gb|777-|999-|
Db|777-|999-|
Ab|555-|777-|
Db|555-|777-|


2nd chourus (RETURN TO ENERGIZER)
Eb|------------|------|------|------|------|------|-------|-------|------|
Bb|------------|------|------|------|------|------|-------|-------|------|
Gb|------------|------|------|------|------|------|-------|-------|------|
Db|101010101010|777777|555555|333333|111111|333333|5555555|8733h55|111111|
Ab|101010101010|777777|555555|333333|111111|333333|5555555|8733h55|111111|
Db|101010101010|777777|555555|333333|111111|333333|5555555|8733h55|111111|

Eb|------|------|------|------|------|------|------|------|------|
Bb|------|------|------|------|------|------|------|------|------|
Gb|------|------|------|------|------|------|------|------|------|
Db|333333|555555|333333|111111|333333|555555|333333|111111|333333|
Ab|333333|555555|333333|111111|333333|555555|333333|111111|333333|
Db|333333|555555|333333|111111|333333|555555|333333|111111|333333|


Outro (AND ALL HELL BREAKS LOOSE WHEN YOUR HERE!!)
Eb|------------------------------9------------|
Bb|------10--------10--------10-----10--------|
Gb|---7---------7---------7-------------7-----|
Db|7---------7---------7-------------------7--|
Ab|-------------------------------------------|
Db|-------------------------------------------|
Tap to rate this tab
 
# A B C D E F G H I J K L M N O P Q R S T U V W X Y Z