Song name
# A B C D E F G H I J K L M N O P Q R S T U V W X Y Z

Enter Shikari - Labyrinth tab

here is how i play it
my first tab:)

comments welcomed

q's philip__morrison@hotmail.co.uk  (2 underscores)

(drop D)

Intro:
e|-----------------------------------------------------|
B|-----------------------------------------------------|
G|-------7-----------------------7---------------------|
D|--xxx--x--77--55--5--4/5/4--0--x--77--55--5--4/5-----|
A|--xxx--5--77--55--5--4/5/4--0--5--77--55--5--4/5-----|
D|--xxx-----77--55--5--4/5/4--0-----77--55--5--4/5-----|

e|-----------------------------------------------------|
B|-----------------------------------------------------|
G|-------7-----------------------7---------------------|
D|-------x--77--55--5--4/5/4--0--x--77--55--5--4/5-----|
A|-------5--77--55--5--4/5/4--0--5--77--55--5--4/5-----|
D|----------77--55--5--4/5/4--0-----77--55--5--4/5-----|

("HELP....")
e|-----------------------------------------------------|
B|-----------------------------------------------------|
G|--7777--777--9999--999--11111111--111111-------------|
D|--7777--777--9999--999--11111111--111111-------------|
A|--5555--555--7777--777---9-9-9-9--9-9-9--------------|
D|-----------------------------------------------------|

e|-----------------------------------------------------|
B|-----------------------------------------------------|
G|--14141414-12121212----------------------------------|
D|--14141414-12121212----------------------------------|
A|--12121212-10101010----------------------------------|
D|-----------------------------------------------------|

e|-----------------------------------------------------|
B|-----------------------------------------------------|
G|----9999--999--11111111--111111----------------------|
D|----9999--999--11111111--111111----------------------|
A|----7777--777---9-9-9-9--9-9-9-----------------------|
D|-----------------------------------------------------|

e|-----------------------------------------------------|
B|-----------------------------------------------------|
G|---161616161616161616/14-1414-14/13-1313-------------|
D|----x-x-x-x-x-x-x-x-x--x--x-x--x--x--x-x-------------|
A|---141414141414141414/12-1212-12/11-1111-------------|
D|-----------------------------------------------------|

e|-----------------------------------------------------|
B|-----------------------------------------------------|
G|--7----9----11----14----12---------------------------|
D|--7-x8-9-x8-11-x8-14-x4-12-x4------------------------|
A|--5----7-----9----12----10---------------------------|
D|-----------------------------------------------------|

e|-----------------------------------------------------|
B|-----------------------------------------------------|
G|--9----11----16----16/14-1414-14/13-1313-13/11-1111--|
D|--9-x8-11-x8-16-x4-16/14-1414-14/13-1313-13/11-1111--|
A|--7-----9----14----14/12-1212-12/11-1111--9/9---9-9--|
D|-----------------------------------------------------|

e|-----------------------------------------------------|
B|-----------------------------------------------------|
G|----9-----11-----------------------------------------|
D|----9--x8-11--x8-------------------------------------|
A|----7------9-----------------------------------------|
D|-----------------------------------------------------|

e|-----------------------------------------------------|
B|-----------------------------------------------------|
G|-------7-----------------------7---------------------|
D|--xxx--x--77--55--5--4/5/4--0--x--77--55--5--4/5-----|
A|--xxx--5--77--55--5--4/5/4--0--5--77--55--5--4/5-----|
D|--xxx-----77--55--5--4/5/4--0-----77--55--5--4/5-----|

e|-----------------------------------------------------|
B|-----------------------------------------------------|
G|-------7-----------------------7---------------------|
D|-------x--77--55--5--4/5/4--0--x--77--55--5--4/5-----|
A|-------5--77--55--5--4/5/4--0--5--77--55--5--4/5-----|
D|----------77--55--5--4/5/4--0-----77--55--5--4/5-----|

("HELP....")
e|-----------------------------------------------------|
B|-----------------------------------------------------|
G|--7777--777--9999--999--11111111--111111-------------|
D|--7777--777--9999--999--11111111--111111-------------|
A|--5555--555--7777--777---9-9-9-9--9-9-9--------------|
D|-----------------------------------------------------|

e|-----------------------------------------------------|
B|-----------------------------------------------------|
G|--14141414-12121212----------------------------------|
D|--14141414-12121212----------------------------------|
A|--12121212-10101010----------------------------------|
D|-----------------------------------------------------|

e|-----------------------------------------------------|
B|-----------------------------------------------------|
G|----9999--999--11111111--111111----------------------|
D|----9999--999--11111111--111111----------------------|
A|----7777--777---9-9-9-9--9-9-9-----------------------|
D|-----------------------------------------------------|

e|-----------------------------------------------------|
B|-----------------------------------------------------|
G|---161616161616161616/14-1414-14/13-1313-------------|
D|----x-x-x-x-x-x-x-x-x--x--x-x--x--x--x-x-------------|
A|---141414141414141414/12-1212-12/11-1111-------------|
D|-----------------------------------------------------|

e|-----------------------------------------------------|
B|-----------------------------------------------------|
G|--7----9----11----14----12---------------------------|
D|--7-x8-9-x8-11-x8-14-x4-12-x4------------------------|
A|--5----7-----9----12----10---------------------------|
D|-----------------------------------------------------|

e|-----------------------------------------------------|
B|-----------------------------------------------------|
G|--9----11----16----16/14-1414-14/13-1313-13/11-1111--|
D|--9-x8-11-x8-16-x4-16/14-1414-14/13-1313-13/11-1111--|
A|--7-----9----14----14/12-1212-12/11-1111--9/9---9-9--|
D|-----------------------------------------------------|

e|-----------------------------------------------------|
B|-----------------------------------------------------|
G|----9-----11-----------------------------------------|
D|----9--x8-11--x8-------------------------------------|
A|----7------9-----------------------------------------|
D|-----------------------------------------------------|

e|-----------------------------------------------------|
B|-----------------------------------------------------|
G|-------7-----------------------7---------------------|
D|--xxx--x--77--55--5--4/5/4--0--x--77--55--5--4/5-----|
A|--xxx--5--77--55--5--4/5/4--0--5--77--55--5--4/5-----|
D|--xxx-----77--55--5--4/5/4--0-----77--55--5--4/5-----|

e|-----------------------------------------------------|
B|-----------------------------------------------------|
G|-------7-----------------------7---------------------|
D|-------x--77--55--5--4/5/4--0--x--77--55--5--4/5-----|
A|-------5--77--55--5--4/5/4--0--5--77--55--5--4/5-----|
D|----------77--55--5--4/5/4--0-----77--55--5--4/5-----|

e|-----------------------------------------------------|
B|-----------------------------------------------------|
G|-----------------------------------------------------|
D|-----------------------------------------------------|
A|-----7---9----11----12---11-11-9---------------------|
D|--00---0---00----00----0-----------------------------|

(finger tapping - use left hand for 7 and right for the rest)
e|-----------------------------------------------------|
B|-----------------------------------------------------|
G|--0-7-12-0-7-14-0-7-15-0-7-14-0-7-12-----------------|
D|-----------------------------------------------------|
A|-----------------------------------------------------|
D|-----------------------------------------------------|

e|-----------------------------------------------------|
B|--0-7-14-0-7-15-0-7-17-0-7-15-0-7-14-----------------|
G|-----------------------------------------------------|
D|-----------------------------------------------------|
A|-----------------------------------------------------|
D|-----------------------------------------------------|

e|-----------------------------------------------------|
B|--0-7-12-0-11~-0-9p11-0-9-11-0-9-11------------------|
G|-----------------------------------------------------|
D|-----------------------------------------------------|
A|-----------------------------------------------------|
D|-----------------------------------------------------|

e|-----------------------------------------------------|
B|-----------------------------------------------------|
G|--0-7-12-0-7-14-0-7-15-0-7-14-0-7-12-----------------|
D|-----------------------------------------------------|
A|-----------------------------------------------------|
D|-----------------------------------------------------|

e|-----------------------------------------------------|
B|--0-7-14-0-7-15-0-7-17-0-7-15-0-7-14-----------------|
G|-----------------------------------------------------|
D|-----------------------------------------------------|
A|-----------------------------------------------------|
D|-----------------------------------------------------|

e|-----------------------------------------------------|
B|--0-7-12-0-11~-0-9p11-0-9-11-0-9-11------------------|
G|-----------------------------------------------------|
D|-----------------------------------------------------|
A|-----------------------------------------------------|
D|-----------------------------------------------------|

("We'll break the walls...)                             __  
e|-----------------------------------------------------|  |
B|-----------------------------------------------------|  |
G|------11-----------9p11-9p11------9p11-9p11----------|  |
D|--00--11--x12--00-------------00---------------------|  |
A|--00---9-------00-------------00---------------------|  |
D|--00-----------00-------------00---------------------|  |___
    xx           xx             xx                         ___x2
e|-----------------------------------------------------|  |
B|-----------------------------------------------------|  |
G|------9p11------end on ------------------------------|  |
D|--00-------------------0~----------------------------|  |
A|--00-------------------0~----------------------------|  |
D|--00-------------------0~----------------------------|__|
    xx
e|-----------------------------------------------------|
B|-----------------------------------------------------|
G|-----------------------------------------------------|
D|-----------------------------------------------------|
A|-----------------------------------------------------|
D|----PICK SLIIIIIIIIIIIIIIDE--------------------------|

e|-----------------------------------------------------|
B|-----------------------------------------------------|
G|-------7-----------------------7---------------------|
D|--xxx--x--77--55--5--4/5/4--0--x--77--55--5--4/5-----|
A|--xxx--5--77--55--5--4/5/4--0--5--77--55--5--4/5-----|
D|--xxx-----77--55--5--4/5/4--0-----77--55--5--4/5-----|

e|-----------------------------------------------------|
B|-----------------------------------------------------|
G|-------7-----------------------7---------------------|
D|-------x--77--55--5--4/5/4--0--x--77--55--5--4/5-----|
A|-------5--77--55--5--4/5/4--0--5--77--55--5--4/5-----|
D|----------77--55--5--4/5/4--0-----77--55--5--4/5-----|

e|-----------------------------------------------------|
B|-----------------------------------------------------|
G|-------7-----------------------7---------------------|
D|--xxx--x--77--55--5--4/5/4--0--x--77--55--5--4/5-----|
A|--xxx--5--77--55--5--4/5/4--0--5--77--55--5--4/5-----|
D|--xxx-----77--55--5--4/5/4--0-----77--55--5--4/5-----|

e|-----------------------------------------------------|
B|-----------------------------------------------------|
G|-------7-----------------------7---------------------|
D|-------x--77--55--5--4/5/4--0--x--77--55--55---------|
A|-------5--77--55--5--4/5/4--0--5--77--55--55---------|
D|----------77--55--5--4/5/4--0-----77--55--55---------|
Tap to rate this tab
# A B C D E F G H I J K L M N O P Q R S T U V W X Y Z