Guitaretab - guitar tabs
Song name
# A B C D E F G H I J K L M N O P Q R S T U V W X Y Z

Enter Shikari - Solidarity tab

-------------------------------------------------------------------------------
			     SOLIDARITY - Enter Shikari
-------------------------------------------------------------------------------

I'm aware this song isn't technically out yet, but I've heard it live,
and heard a lot of live recordings. I love this song.
Sounds accurate to me, comment and rate, kfx! :D

Tuning: CGCFAD

- INTRO -
D|---------------------------------------------------------------------------|
A|---------------------------------------------------------------------------|
F|---------------------------------------------------------------------------|
C|--------------2------------------------x8----------------------------------|
G|-0-0-00--0-0-----3-------0-0-----------------------------------------------|
C|-0-0-00--0-0--------5-0--0-0-----------------------------------------------|

- INTRO (ptII / tapping bit) -
Obviously, tap it all.
D|---------------------------------------------------------------------------|
A|---------------------------------------------------------------------------|
F|---------------------------------------------------------------------------|
C|-7-0-3-0-7-0-3-0-8-0-3-0-5-0-3-0--5-0-2-0-5-0-2-0-3-0-5-0-3-0-3-0--x2------|
G|---------------------------------------------------------------------------|
C|---------------------------------------------------------------------------|

- BREAKDOWN -
Bend the strings behind the nut to get the C#, the 1.
Maybe a floating trem could be used, I don't have one. D:
D|--------------------------------------------------------------------------|
A|--------------------------------------------------------------------------|
F|--------------------------------------------------------------------------|
C|-0-----------0----/1-----\0-----x-----------------------------------------|
G|-0-----------0----/1-----\0-----x--x2-------------------------------------|
C|-0-----------0----/1-----\0-----x-----------------------------------------|

D|---------------------------------------------------------------------------|
A|---------------------------------------------------------------------------|
F|---------------------------------------------------------------------------|
C|---------------------------------------------------------------------------|
G|-0-0-0-0---0-0-00-1-1-11-0-0-0-0---------0-0-0-0--0-0-00-1-1-11-0-0-0-0----|
C|-0-0-0-0---0-0-00-1-1-11-0-0-0-0---------0-0-0-0--0-0-00-1-1-11-0-0-0-0----|
[ Tab from: http://www.guitaretab.com/e/enter-shikari/187126.html ]
Palm mute the low C-only open notes.
D|---------------------------------------------------------------------------|
A|---------------------------------------------------------------------------|
F|---------------------------------------------------------------------------|
C|-0-0----0-0----0-0----1-1----0-0----0-0----0-0----1-1----------------------|
G|-0-0----0-0----0-0----1-1----0-0----0-0----0-0----1-1----------------------|
C|-0-0--0-0-0--0-0-0--0-1-1--0-0-0--0-0-0--0-0-0--0-1-1--0-------------------|


D|---------------------------------------------------------------------------|
A|---------------------------------------------------------------------------|
F|---------------------------------------------------------------------------|
C|-0-0----0-0----0-0----1-1----0-0----0-0------------------------------------|
G|-0-0----0-0----0-0----1-1----0-0----0-0-----fill---------------------------|
C|-0-0--0-0-0--0-0-0--0-1-1--0-0-0--0-0-0------------------------------------|

Yeeeaaah, I'm too lazy to work out the fill, but that means you'll make it your own! :D
At least that's my excuse. It does sound better, and is more satisfying, to play your own fills.
Rory uses a SikTh-like tap-pull-hammer, string up, tap-pull-hammer thing.
I know the SikTh guitarist did have some influence on that ;)

- Final Part -
D|--------------------------------------------------------------------------|
A|-10---10-10------10----10-10----------------------------------------------|
F|-10---12b12b-----10----12b12b---------------------------------------------|
C|--------------------------------------------------------------------------|
G|--------------------------------------------------------------------------|
C|--------------------------------------------------------------------------|
Bend the 12's on the F string up a note, to match the 10 on the A string.
This part sounds strange without everyone singing and the rest of the instruments.
That's all the guitar's doing though.
Variate it, keep yourself interested!

D|--------------------/13--10-h12----------------10----------------10----|
A|-10---10-10----10---------------------10-10-------131110--101113-------|
F|-10---12b12b---10----------------10---12b12b------------12-------------|
C|-----------------------------------------------------------------------|
G|-----------------------------------------------------------------------|
C|-----------------------------------------------------------------------|

D|----------------------------------------------------------------10-13~-|
A|-10---10-10----10----10--13-10------------10---10-10-------------------|
F|-10---12b12b---10----12b----12br-10-------10---12b12b-----10-15--------|
C|-------------------------------------------------------12--------------|
G|-----------------------------------------------------------------------|
C|-----------------------------------------------------------------------|

Y'know? Just things like that. Don't copy that, that's what I'll probably do.
You'd make me unhappy.
Is that what you want?!
I made this tab! D:

*ahem*

Yeah sure, you would honestly feel better if it was your own.
You'll be like "hell yeah, I made that, bro!"

Anyway, I hope you enjoyed this tab, it's an excellent song.


| /  slide up
| \  slide down
| h  hammer-on
| p  pull-off
| ~  vibrato
| +  harmonic
| x  Mute note
===============================================================================
Related for Solidarity tab
Solidarity chords by Enter Shikari