Song name
# A B C D E F G H I J K L M N O P Q R S T U V W X Y Z

Enter Shikari - Fanfare For The Concious Man tab

Help us improve GuitareTab! Take a short survey!
Band: Enter Shikari
Song: Fanfare For The Conscious Man

Tuning: Drop C

Intro and main part:

|-------------------------|---------------------------|
|-------------------------|---------------------------|
|---------------------7-7-|-----------------------7-7-|
|-5-5-5-5-5-5-5-5-5-5-x-x-|--9-9-9-9-9-9-9-9--7-7-x-x-|
|-5-5-5-5-5-5-5-5-5-5-5-5-|--9-9-9-9-9-9-9-9--7-7-5-5-|
|-5-5-5-5-5-5-5-5-5-5-----|--9-9-9-9-9-9-9-9--7-7-----|

Chorus

|-----------------------|-----------------------|
|-----------------------|-----------------------|
|--9-9-9-9--11-11-11-11-|--9-9-9-9--11-11-11-11-|
|--x-x-x-x--x--x--x--x--|--x-x-x-x--x--x--x--x--|
|--7-7-7-7--9--9--9--9--|--7-7-7-7--9--9--9--9--|
|-----------------------|-----------------------|


|-----------------------|---------------------------|
|-----------------------|---------------------------|
|--9-9-9-9--11-11-11-11-|-18-18-18-18--14-14-14-14--|
|--x-x-x-x--x--x--x--x--|-x--x--x--x---x--x--x--x---|
|--7-7-7-7--9--9--9--9--|-16-16-16-16--12-12-12-12--|
|-----------------------|---------------------------|




Could be wrong, but I think its pretty much that throughout.
Related for Fanfare For The Concious Man tab