Song name
# A B C D E F G H I J K L M N O P Q R S T U V W X Y Z

Enter Shikari - Score 22 tab

e-------------------------------------------------|
B-------12----------------------------------------|
G-----12--12-----10--8-------12--10---------------|
D---12---------10----------12---------------------|
A------------10----------12-----------------------|
D-------------------------------------------------|Intro with a delay effect x7
(Verse)



e-------------------------------------------------|Rhythm Guitar (Chorus)x2
B-------------------------------------------------|
G-------------------------------------------------|
D--3--5--5--00-0-0-0--1--1-1--3-3-----------------|
A--3--5--5--00-0-0-0--1--1-1--3-3-----------------|
D--3--5--5--00-0-0-0--1--1-1--3-3-----------------|

(Verse)
(Chorus)
(Verse)
(Chorus)

Techno Breakdown Guitar
(cant really type out the picking pattern listen to the song for the rhythm)
e-------------------------------------------------|
B-------------------------------------------------|
G--12---10---10----12-----------------------------|
D--x----x----8-----10-----------------------------|
A--10---8----8-----10-----------------------------|
D------------8-----10-----------------------------|

Breakdown-y thing *= P.M.

e-------------------------------------------------|
B-------------------------------------------------|
G--------*-*-*-*-*--------------------------------|
D---5----5-5-5-5-5--------------------------------|
A---5----5-5-5-5-5--------------------------------|
D---5----5-5-5-5-5--------------------------------|

Hope It Helps.

Tap to rate this tab
 
# A B C D E F G H I J K L M N O P Q R S T U V W X Y Z