Song name
# A B C D E F G H I J K L M N O P Q R S T U V W X Y Z

Enter Shikari - Step Up tab

ATTENTION, PLEASE READ!
All credit for this tab goes to hughh1000, this tab is all his work.
I am uploading it on his behalf due to the fact UG keep rejecting his tabs
even though there very accurate.

Check him out at-

http://www.youtube.com/hughshikarii

Intro w/ heavy filter
------------------------------|
------------------------------|
------------------------------|
--0~-----0~-------0~-----0~---|
--0~-----0~-------0~-----0~---|
--0~-----0~-------0~-----0~---|

Intro Part two
------------------------------|
------------------------------|
-------10---10---12---9---9\7-|
--0----8----7----7----5---5---|
--0x7--8-x7-7-x3-7-x3-5x5-5---| listen for rythem  whole thing x4
--0----8----7----7----5---5---|


-----
-----
-----
-0~--
-0~--
-0~--

Verse
--------------------------------------------|
--------------------------------------------|
--------------------------------------------|
--------------------------------------------|x2
-0--0-0-0-0-0-0--0-0-0-0--0-0--0-0-0-0-0-0--|
-0--0-0-0-0-0-0--0-0-0-0--0-0--0-0-0-0-0-0--|
-0--0-0-0-0-0-0--0-0-0-0--0-0--0-0-0-0-0-0--|
 .  . . . . . .           .    . . . . . .

-----------------------------------------------------|
-----------------------------------------------------|
-----------------------------------------------------|
-----------------------------------------------------|
-0--0-0-0-0-0--0h7h10h15----0-0-0--0-0--0-0-0-0-0-0--|
-0--0-0-0-0-0---------------0-0-0--0-0--0-0-0-0-0-0--|
-0--0-0-0-0-0---------------0-0-0--0-0--0-0-0-0-0-0--|
 .  . . . . .                      .    . . . . . .


i suggest you do these hammer ons and pull offs etc the fills by
striking the open c with your plectrum and hammering on 7
and 10 with your first and pinky fingers giving your right
middlefinger time to hammer 15 at the end , then strike the chord on
neck with your plectrum for the open chords while moving backtowards
the bridge so you can mute the next ones.


------------------------------------------------------------------------|
------------------------------------------------------------------------|
------------------------------------------------------------------------|
--------------------------------------------        --------------------|
-0--0-0-0-0-0-0--0-0-0-0--0-0--0-0-0-0-0-0--        --0h7h10h15p10p7p0--|
-0--0-0-0-0-0-0--0-0-0-0--0-0--0-0-0-0-0-0------------------------------|
-0--0-0-0-0-0-0--0-0-0-0--0-0--0-0-0-0-0-0------------------------------|
 .  . . . . . .           .    . . . . . .


CHORUS  simple riff really, listen for timing because it is played so you hear the drum inbetween
-----------------------------------------------------|
-----------------------------------------------------|
-----------------------------------------------------|
-0-0-0-0-0---------0-0-0-0-8-8-8-8-8--------5-5-5-5--|x4
-0-0-0-0-0---------0-0-0-0-8-8-8-8-8--------5-5-5-5--|
-0-0-0-0-0-(drum)--0-0-0-0-8-8-8-8-8-(drum)-5-5-5-5--|

2:20 AND ITS SO FRUSTRATINGG>: intro riffs first

Intro w/ heavy filter
------------|
------------|
------------|
--0~-----0~-|
--0~-----0~-|
--0~-----0~-|

Intro Part two "HOW FUCKING CUTE IS OUR IGNORANCEE"
------------------------------|
------------------------------|
-------10---10---12---9---9\7-|
--0----8----7----7----5---5---|x2
--0x7--8-x7-7-x3-7-x3-5x5-5---| listen for rythem  whole thing x4
--0----8----7----7----5---5---|

Chorus "AND YOU CAN FIGHT IMBALANCE, YOU CAN DESTROY IMBALANCE"
CHORUS  simple riff really, listen for timing because it is played so you hear the drum inbetween
-----------------------------------------------------|
-----------------------------------------------------|
-----------------------------------------------------|
-0-0-0-0-0---------0-0-0-0-8-8-8-8-8--------5-5-5-5--|x8
-0-0-0-0-0---------0-0-0-0-8-8-8-8-8--------5-5-5-5--|
-0-0-0-0-0-(drum)--0-0-0-0-8-8-8-8-8-(drum)-5-5-5-5--|

OUTRO RIFF same as verse
--------------------------------------------|
--------------------------------------------|
--------------------------------------------|
--------------------------------------------|x2
-0--0-0-0-0-0-0--0-0-0-0--0-0--0-0-0-0-0-0--|
-0--0-0-0-0-0-0--0-0-0-0--0-0--0-0-0-0-0-0--|
-0--0-0-0-0-0-0--0-0-0-0--0-0--0-0-0-0-0-0--|
 .  . . . . . .           .    . . . . . .

-----------------------------------------------------|
-----------------------------------------------------|
-----------------------------------------------------|
-----------------------------------------------------|
-0--0-0-0-0-0--0h7h10h15----0-0-0--0-0--0-0-0-0-0-0--|
-0--0-0-0-0-0---------------0-0-0--0-0--0-0-0-0-0-0--|
-0--0-0-0-0-0---------------0-0-0--0-0--0-0-0-0-0-0--|
 .  . . . . .                      .    . . . . . .

-----------------------------------------------------|
-----------------------------------------------------|
-----------------------------------------------------|
-----------------------------------------------------|
-0--0-0-0-0-0-0--0-0-0-0--0-0--0-0-0-0-0-0---3-3--0~-|
-0--0-0-0-0-0-0--0-0-0-0--0-0--0-0-0-0-0-0---3-3--0~-|
-0--0-0-0-0-0-0--0-0-0-0--0-0--0-0-0-0-0-0---3-3--0~-|
 .  . . . . . .           .    . . . . . .   . .
Tap to rate this tab
 
# A B C D E F G H I J K L M N O P Q R S T U V W X Y Z