Song name
# A B C D E F G H I J K L M N O P Q R S T U V W X Y Z

Enter Shikari - The Bearer Of Bad News tab

Artist - Enter Shikari
Song - The Bearer Of Bad News
Album - Sorry Your Not A Winner EP
Other one had a few mistakes so i think this is better..
Any Questions / Corrections - xThisWarIsOursx@hotmail.com

D#|--------------------------------------------------------------------|
A#|--------------------------------------------------------------------|
F#|----8---8-----8---8---------------------8---8------8---8------------|
C#|-----------------------11-11-11---------6---6------6---6---8-8-8-8--|
G#|7-7---7---7-7---7------9--9--9------4-4---4----4-4---4-----6-6-6-6--|
C#|--------------------------------------------------------------------|


D#|-------------------------------------------------|
A#|-------------------------------------------------|
F#|9--9--9--9--9-9-9-9--12--12--12--12--12-12-12-12-|
C#|9--9--9--9--9-9-9-9--12--12--12--12--12-12-12-12-|
G#|7--7--7--7--7-7-7-7--10--10--10--10--10-10-10-10-|
C#|-------------------------------------------------|
                    You provoke...

D#|-------------------------------------------------|
A#|-------------------------------------------------|
F#|7--7--7--7--7-7-7-7--9--9--9--9--9-9-9-9---------|
C#|7--7--7--7--7-7-7-7--9--9--9--9--9-9-9-9---------|
G#|5--5--5--5--5-5-5-5--7--7--7--7--7-7-7-7---------|
C#|-------------------------------------------------|
    Tears that stain..You control my face.

D#|-------------------------------------------------|
A#|-------------------------------------------------|
F#|9--9--9--9--9-9-9-9--12--12--12--12--12-12-12-12-|
C#|9--9--9--9--9-9-9-9--12--12--12--12--12-12-12-12-|
G#|7--7--7--7--7-7-7-7--10--10--10--10--10-10-10-10-|
C#|-------------------------------------------------|
                You arrange...    

D#|-------------------------------------------------|
A#|-------------------------------------------------|
F#|7--7--7--7--7-7-7-7--9--9--9--9--9-9-9-9---------|
C#|7--7--7--7--7-7-7-7--9--9--9--9--9-9-9-9---------|
G#|5--5--5--5--5-5-5-5--7--7--7--7--7-7-7-7---------|
C#|-------------------------------------------------|
    It to show..A broken expression.

D#|----------------------------------------|
A#|----------------------------------------|
F#|----------------------------------------|
C#|----------------------------------------|
G#|xx-2-2-x-5-x-5-5-x-7-x-7-7-x-10-x-10-10-|
C#|xx-2-2-x-5-x-5-5-x-7-x-7-7-x-10-x-10-10-|
I hate to be the bearer of bad news,As the cracks appear to run


D#|---------------------------------------------------------------|
A#|---------------------------------------------------------------|
F#|---------------------------------------------------------------|
C#|---------------------------------------------------------------|
G#|2-x-2-2-x-5-x-5-5-x-7-x-7-7-x-10-10-10-10-10-10-10-10-10-10-10-|
C#|2-x-2-2-x-5-x-5-5-x-7-x-7-7-x-10-10-10-10-10-10-10-10-10-10-10-|
     But we'll meet again on better terms

D#|-------------------------------------------------|
A#|-------------------------------------------------|
F#|9--9--9--9--9-9-9-9--12--12--12--12--12-12-12-12-|
C#|9--9--9--9--9-9-9-9--12--12--12--12--12-12-12-12-|
G#|7--7--7--7--7-7-7-7--10--10--10--10--10-10-10-10-|
C#|-------------------------------------------------|
                    You provoke...

D#|-------------------------------------------------|
A#|-------------------------------------------------|
F#|7--7--7--7--7-7-7-7--9--9--9--9--9-9-9-9---------|
C#|7--7--7--7--7-7-7-7--9--9--9--9--9-9-9-9---------|
G#|5--5--5--5--5-5-5-5--7--7--7--7--7-7-7-7---------|
C#|-------------------------------------------------|
    Tears that stain..You control my face.

D#|-------------------------------------------------|
A#|-------------------------------------------------|
F#|9--9--9--9--9-9-9-9--12--12--12--12--12-12-12-12-|
C#|9--9--9--9--9-9-9-9--12--12--12--12--12-12-12-12-|
G#|7--7--7--7--7-7-7-7--10--10--10--10--10-10-10-10-|
C#|-------------------------------------------------|
                You arrange...    

D#|-------------------------------------------------|
A#|-------------------------------------------------|
F#|7--7--7--7--7-7-7-7--9--9--9--9--9-9-9-9---------|
C#|7--7--7--7--7-7-7-7--9--9--9--9--9-9-9-9---------|
G#|5--5--5--5--5-5-5-5--7--7--7--7--7-7-7-7---------|
C#|-------------------------------------------------|
    It to show..A broken expression.

D#|----------------------------------------|
A#|----------------------------------------|
F#|----------------------------------------|
C#|----------------------------------------|
G#|xx-2-2-x-5-x-5-5-x-7-x-7-7-x-10-x-10-10-|
C#|xx-2-2-x-5-x-5-5-x-7-x-7-7-x-10-x-10-10-|
I hate to be the bearer of bad news,As the cracks appear to run


D#|---------------------------------------------------------------|
A#|---------------------------------------------------------------|
F#|---------------------------------------------------------------|
C#|---------------------------------------------------------------|
G#|2-x-2-2-x-5-x-5-5-x-7-x-7-7-x-10-10-10-10-10-10-10-10-10-10-10-|
C#|2-x-2-2-x-5-x-5-5-x-7-x-7-7-x-10-10-10-10-10-10-10-10-10-10-10-|
     But we'll meet again on better terms

D#|--------------------------------------------------------------------|
A#|--------------------------------------------------------------------|
F#|----8---8-----8---8---------------------8---8------8---8------------|
C#|-----------------------11-11-11---------6---6------6---6---8-8-8-8--|x2
G#|7-7---7---7-7---7------9--9--9------4-4---4----4-4---4-----6-6-6-6--|
C#|--------------------------------------------------------------------|

D#|----------------------------------------|
A#|----------------------------------------|
F#|----------------------------------------|
C#|----------------------------------------|
G#|xx-2-2-x-5-x-5-5-x-7-x-7-7-x-10-x-10-10-|
C#|xx-2-2-x-5-x-5-5-x-7-x-7-7-x-10-x-10-10-|
I hate to be the bearer of bad news,As the cracks appear to run


D#|---------------------------------------------------------------|
A#|---------------------------------------------------------------|
F#|---------------------------------------------------------------|
C#|---------------------------------------------------------------|
G#|2-x-2-2-x-5-x-5-5-x-7-x-7-7-x-10-10-10-10-10-10-10-10-10-10-10-|
C#|2-x-2-2-x-5-x-5-5-x-7-x-7-7-x-10-10-10-10-10-10-10-10-10-10-10-|
     But we'll meet again on better terms


D#|------------------------| 
A#|------------------------|
F#|-9--\7-xxx-10--\9-xxx---|
C#|-9--\7-xxx-10--\9-xxx---| x8
G#|-7--\5-xxx-8---\7-xxx---|
C#|------------------------|
Hope to.. god that we.. get out alive.


D#|-----------------------------------|
A#|-----------------------------------| 
F#|-9-9-99-7-7-77-10-10-1010-9-9-99---|
C#|-x-x-xx-x-x-xx-xx-xx-xxxx-x-x-xx---| x 8
G#|-7-7-77-5-5-55-8--8--8-8--7-7-77---|
C#|-----------------------------------|
Yes i hope to god that we get out alive.

D#|-------------------------------------------|
A#|-------------------------------------------|
F#|-9-9-99-10-10-1010-12-12-1212-14-14-1414---|
C#|-x-x-xx-xx-xx-xxxx-xx-xx-xxxx-xx-xx-xxxx---|
G#|-7-7-77-8--8--8-8--10-10-1010-12-12-1212---|
C#|-------------------------------------------|
     Yes i hope to god

D#|----------------------------------------------------------|
A#|----------------------------------------------------------|
F#|-9h10p9-7-7-7-5-5-5---------9h10p9-7-7-7-7-5h7p5----------|
C#|---------------------7-10-------------------------7-10----| x2
G#|----------------------------------------------------------|
C#|----------------------------------------------------------|
    Yes i hope
Tap to rate this tab
# A B C D E F G H I J K L M N O P Q R S T U V W X Y Z