Song name
# A B C D E F G H I J K L M N O P Q R S T U V W X Y Z

Enter Shikari - Solidarity tab

Drop C Tuning

~ = Let Ring
^ = Bend
h = Hammer On/Tap
p = Pull Off

Intro - Synth

Guitar Intro:
D|-------------------------------------|
A|-------------------------------------|
F|-------------------------------------|
C|-000-000--2-------00-----------------| X8
G|-000-000----3-----00-----------------|
C|-000-000------5-0-00-----------------|

==============================================================

Tapping Part:
D|--------------------------------------------------------------|
A|--------------------------------------------------------------|
F|--------------------------------------------------------------|
C|-3-0-7-0-3-0-7-0-3-0-7-3-0-7-0-3-0-7-0-3-0-7-3-0-10-0-3-0-10--|
F|--------------------------------------------------------------|
C|--------------------------------------------------------------|

D|---------------------------------------------------------------|
A|---------------------------------------------------------------|
F|---------------------------------------------------------------|
C|-0-3-0-8-3-0-8-0-3-0-8-0-3-0-8-0-5-0-8-0-5-0-8-0-5-0-8-0-5-0-8-|
F|---------------------------------------------------------------|
C|---------------------------------------------------------------|

Right! Basically:
the left hand taps -3- 12 times and
                   -5- 4 times

the right hand taps -7-  6 times,
                    -10- 2 times
                    -8-  8 times

Makes it easier if you play it to the song, or at least it was for me!!

===================================================================

Breakdown:

Part 1
D|-------------------------------------|
A|-------------------------------------|
F|-------------------------------------|
C|-0~--0000^---------------------------| X2
G|-0~--0000^---------------------------|
C|-0~--0000^---------------------------|

To Bend, press down on the strings above the bridge

Part 2
D|---------------------------------------|
A|---------------------------------------|
F|---------------------------------------|
C|-00-000---0000/1-1-1-1-1---00-000------|  X2
G|-00-000---0000/1-1-1-1-1---00-000------|
C|-00-000---0000/1-1-1-1-1---00-000------|

"And Now the floodgates will open, RAAHHHHH!!!"

Part 3
D|-------------------------------------|
A|-------------------------------------|
F|-------------------------------------|
C|-000-000-000/1-1-1-------------------| X4
G|-000-000-000/1-1-1-------------------|
C|-000-000-000/1-1-1-------------------|

Interlude/Fill:

Either!! ...
D|-------------------------------------|
A|-------------------------------------|
F|-------------------------------------|
C|-0-5h-7h--0-3h-5h--0-5h-7h--0-5h-8h--| X2
G|-------------------------------------|
C|-------------------------------------|

Or ...

D|----------------------------------------|
A|----------------------------------------|
F|----------------------------------------|
C|-0-7h-8h-15hp-8p-7p-0--7h-8h-17hp-8p-7--| X2
G|----------------------------------------|
C|----------------------------------------|

Or alternatively neither!! Truth is I can't find the exact right thing for this part. 
sound about right in different ways!!

Back To Part 3 again!
D|-------------------------------------|
A|-------------------------------------|
F|-------------------------------------|
C|-000-000-000/1-1-1-------------------| X3
G|-000-000-000/1-1-1-------------------|
C|-000-000-000/1-1-1-------------------|

D|-------------------------------------|
A|-------------------------------------|
F|-------------------------------------|
C|-000-000-0~--------------------------| X4
G|-000-000-0~----Scratch up string-----|
C|-000-000-0~--------------------------|

============================================================

Outro

D|-------------------------------------|
A|-10~-10-10^--------------------------|
F|-10~-12-12^--------------------------|
C|-------------------------------------| X8?
G|-------------------------------------|
C|-------------------------------------|


This part doesn't sound right on its own! But with the track it will all make sense!!

Thats pretty much it! First Tab, so be nice!=)
Tap to rate this tab
# A B C D E F G H I J K L M N O P Q R S T U V W X Y Z