Song name
# A B C D E F G H I J K L M N O P Q R S T U V W X Y Z

Enter Shikari - Thumper tab

Hey Guys

Heres Thumper by Enter Shikari. It's a belter of a tune and quite fun and easy to play.

http://www.youtube.com/watch?v=SukHXeMy1Kc
Theres my cover on youtube. Please subscribe as i put new videos on regularly

Track: THUMPER
Artist: ENTER SHIKARI
Album: TRIBALISM

Tuning: Drop C
(They play this in C# i think and if you don't want to tune to C just shift everything 
here one notch. There aren't any notes you can't play in C#)

Intro x2 (Palm Muted)

D--------------------------------------------------|
A--------------------------------------------------|
F--------------------------------------------------|
C-1-1-1--1-4-3--1-1-1--1-1--6-6-6--6-6--5-5-5--5-5-|
G-1-1-1--1-4-3--1-1-1--1-1--6-6-6--6-6--5-5-5--5-5-|
C-1-1-1--1-4-3--1-1-1--1-1--6-6-6--6-6--5-5-5--5-5-|

Verse x2

D--------------------------------------------------|
A--------------------------------------------------|
F--------------------------------------------------|
C-1-1-1--1-4-3--1-1-1--1-1--6-6-6--6-6--5-5-5--5-5-|
G-1-1-1--1-4-3--1-1-1--1-1--6-6-6--6-6--5-5-5--5-5-|
C-1-1-1--1-4-3--1-1-1--1-1--6-6-6--6-6--5-5-5--5-5-|

Chrous (We're Sick Of The Same Old Story...)

D-----------------|-----------------|-------------------------|
A-----------------|-----------------|-------------------------|
F-----------------|-----------------|-------------------------|
C-8-8-8-8-8-8-9-9-|-8-8-8-8-8-8-9-9-|-11-11-11-11-11-11-11-11-|
G-6-6-6-6-6-6-6-6-|-6-6-6-6-6-6-6-6-|-9--9--9--9--9--9--9--9--|
C-6-6-6-6-6-6-6-6-|-6-6-6-6-6-6-6-6-|-9--9--9--9--9--9--9--9--|

D-------------------------|
A-------------------------|
F-------------------------|
C-13-13-13-13-13-13-13-13-|           X4
G-11-11-11-11-11-11-11-11-|
C-11-11-11-11-11-11-11-11-|

Chorus Part 2 (WE WILL WE WILL NEVER BE SANE!)

D---------------|-----------------|
A---------------|-----------------|
F-8---8---8---8-|-10--10--13---13-|      X4
C-8---8---8---8-|-10--10--13---13-|
G-6---6---6---6-|-9---9---11---11-|
C-6---6---6---6-|-9---9---11---11-|

Synth Breakdown (Listen carefully towards the end of it)


D----------------------------|-------------------------|
A----------------------------|-------------------------|
F-13-13-13-13-13-13-13-13-14-|-14-14-14-14-14-14-14-14-|
C-x--x--x--x--x--x--x--x--x--|--x--x--x--x--x--x--x--x-|
G-11-11-11-11-11-11-11-11-12-|-12-12-12-12-12-12-12-12-|
C----------------------------|-------------------------|
                                                               X2
D-------------------------|----------------------|
A-------------------------|----------------------|
F-16-16-16-16-16-16-16-16-|----------------------|
C--x--x--x--x--x--x--x--x-|--x--x--x--x----x---x-|
G-14-14-14-14-14-14-14-14-|-14-14-14-16---14--14-|
C-------------------------|----------------------|

(Carry the synth breakdown on through out the Chorus if you have two guitars. If you're 
on your own play the chords again.)

Chorus

D-----------------|-----------------|-------------------------|
A-----------------|-----------------|-------------------------|
F-----------------|-----------------|-------------------------|
C-8-8-8-8-8-8-9-9-|-8-8-8-8-8-8-9-9-|-11-11-11-11-11-11-11-11-|
G-6-6-6-6-6-6-6-6-|-6-6-6-6-6-6-6-6-|-9--9--9--9--9--9--9--9--|
C-6-6-6-6-6-6-6-6-|-6-6-6-6-6-6-6-6-|-9--9--9--9--9--9--9--9--|

D-------------------------|
A-------------------------|
F-------------------------|
C-13-13-13-13-13-13-13-13-|           X4
G-11-11-11-11-11-11-11-11-|
C-11-11-11-11-11-11-11-11-|

Chorus Part 2 (WE WILL WE WILL NEVER BE SANE!)

D---------------|-----------------|
A---------------|-----------------|
F-8---8---8---8-|-10--10--13---13-|      X4
C-8---8---8---8-|-10--10--13---13-|
G-6---6---6---6-|-9---9---11---11-|
C-6---6---6---6-|-9---9---11---11-|

Chorus

D-----------------|-----------------|-------------------------|
A-----------------|-----------------|-------------------------|
F-----------------|-----------------|-------------------------|
C-8-8-8-8-8-8-9-9-|-8-8-8-8-8-8-9-9-|-11-11-11-11-11-11-11-11-|
G-6-6-6-6-6-6-6-6-|-6-6-6-6-6-6-6-6-|-9--9--9--9--9--9--9--9--|
C-6-6-6-6-6-6-6-6-|-6-6-6-6-6-6-6-6-|-9--9--9--9--9--9--9--9--|

D-------------------------|
A-------------------------|
F-------------------------|
C-13-13-13-13-13-13-13-13-|           X4
G-11-11-11-11-11-11-11-11-|
C-11-11-11-11-11-11-11-11-|

Outro

D--------------------------------------------------|
A--------------------------------------------------|
F--------------------------------------------------|
C-1-1-1--1-4-3--1-1-1--1-1--6-6-6--6-6--5-5-5--5-5-|   X2
G-1-1-1--1-4-3--1-1-1--1-1--6-6-6--6-6--5-5-5--5-5-|
C-1-1-1--1-4-3--1-1-1--1-1--6-6-6--6-6--5-5-5--5-5-|

Start off palm muting then gradually stop.

D--------------------------------------------------|------------|
A--------------------------------------------------|------------|
F--------------------------------------------------|------------|
C-1-1-1--1-4-3--1-1-1--1-1--6-6-6--6-6--5-5-5--5-5-|-1----------|
G-1-1-1--1-4-3--1-1-1--1-1--6-6-6--6-6--5-5-5--5-5-|-1----------|
C-1-1-1--1-4-3--1-1-1--1-1--6-6-6--6-6--5-5-5--5-5-|-1----------|

There you go.
Have fun!
Tap to rate this tab
# A B C D E F G H I J K L M N O P Q R S T U V W X Y Z