Song name
# A B C D E F G H I J K L M N O P Q R S T U V W X Y Z

Enter Shikari - Empty tab

I'm not sure about this tab but I think it's a good version that sounds like the real song =)

Intro:

|-------------------------------------------------------------|
|-------------------------------------------------------------|
|-------------------------------------------------------------|
|---4-4--0~~--------------------------------------------------|
|---4-4--0~~--------------------------------------------------|
|---4-4--0~~--------------------------------------------------|


strofe:

|---------------------------------------------------------------------|
|---------------------------------------------------------------------|
|--------------------6-6-6-6-7-7--------------------------------------|
|--4-4-4-4-4-4-4-0---7-7-7-7-7-7--7-7-7-7-7-7-7-9---11-11-11-11-12-12-|  X2
|--4-4-4-4-4-4-4-0---5-5-5-5-5-5--7-7-7-7-7-7-7-9---9--9--9--9--9--9--|
|--4-4-4-4-4-4-4-0----------------7-7-7-7-7-7-7-9---9--9--9--9--9--9--|

|----------------------------------------------------------------------|
|----------------------------------------------------------------------|
|-----------------6---6-----6h7p6~-------------------------------------|
|------7---6----------------------------11---9-----11-11----11-11-11-11| X2
|--------------------------------------------------9--9-----9--9--9--9-|
|--4-4---4---0-0----0---0-0---------7-7----7---x-9-------9--9--9--9--9-|
   . .   .   . .    .   . .         . .    .   . .        



|----------------------14-14---14-14-14--------------------------|
|----------------------15-15---15-15-15---------12.-----12.------|
|----------------------14-14---14-14-14---------12.-----12.------|
|-------------------------------------------10--12.--9--12.------|
|--0-0---0-0-0---0-0------------------------10-------9-----------|
|--0-0---0-0-0---0-0------------------------10-------9-----------|
   . .   . . .   . .
|----------------------------------------------------------------|
|-------------------------------------------------12.-----12.----|
|--11------12------14------11------12---11--------12.-----12.----|
|--x-------x-------x-------x-------x----x-----10--12.--9--12.----|   X2
|--12-0-0--12-0-0--12-0-0--12-0-0--12-0-12----10-------9---------|
|-----0-0-----0-0-----0-0-----0-0-----0-------10-------9---------|
      . .     . .     . .     . .     . 
 
 little Bridge:

|----------------------10---------------------10------------------|
|----------------------10---------------------10------------------|
|----------------------11---------------------11------------------|
|----------------------12---------------------12------------------|
|------10--9--10p9----------------10--9---------------------------|
|----------------------------------------12~----------------------|

|-------------------------------------------------------------|
|-------------------------------------------------------------|
|-------------------------------------------------------------|
|-9p--14p--9p--14p--9p0----9p--14p--9p--10p--5p0--------------|
|-------------------------------------------------------------|
|-------------------------------------------------------------|

|---------------------------------------------------------------|
|---------------------------------------------------------------|
|---------------------------------------------------------------|
|-9p--14p--9p--14p--9p0----9p--14p--9p--9-9-9--9-9-9-9-9-9-9-9--|
|---------------------------------------9-9-9--9-9-9-9-9-9-9-9--|
|---------------------------------------9-9-9--9-9-9-9-9-9-9-9--|
                                        . . .  . . . . . . . . 



|--------------------------------------------------------------------|
|--------------------------------------------------------------------|
|--------------------------------------------------------------------|
|--10-10--10-10-10--10-10-10-10-10-\-9-9--9-9-9--9-9-9--9-9-9-9-9-9--|  x2
|--10-10--10-10-10--10-10-10-10-10-\-9-9--9-9-9--9-9-9--9-9-9-9-9-9--|
|--10-10--10-10-10--10-10-10-10-10-\-9-9--9-9-9--9-9-9--9-9-9-9-9-9--|
                                                 . . .  . . . . . . 


|------------------------------------------------------------|
|------------------------------------------------------------|
|------------------------------------------------------------|
|---\-4-4--4-4-4-4--0-0-0--0-0-0-0-0-0---7-7-7--7-7-7-7-7-7--|
|---\-4-4--4-4-4-4--0-0-0--0-0-0-0-0-0---7-7-7--7-7-7-7-7-7--|
|---\-4-4--4-4-4-4--0-0-0--0-0-0-0-0-0---7-7-7--7-7-7-7-7-7--|
        .  . . . .  . . .  . . . . . .   . . .  . . . . . .
|-------------------------------------------------------------|
|-------------------------------------------------------------|
|-------------------------------------------------------------|
|--/-9-9-9--9-9-9-9-9-9-\-------------------------------------|   X2
|--/-9-9-9--9-9-9-9-9-9-\-------------------------------------|
|--/-9-9-9--9-9-9-9-9-9-\-------------------------------------|
       . .  . . . . .  

|-------------------------------------------------------------|
|-------------------------------------------------------------|
|-------------------------------------------------------------|
|---4-4--0----------------------------------------------------|
|---4-4--0----------------------------------------------------|
|---4-4--0----------------------------------------------------|

  then back the whole way from the beginning
 
  after you played the whole thing again, the ending starts....
  You can figure thatone out yourselve, it't very easy if you can 
  play this.

  So .....  ENJOY !!!!!!!!!
         
/ : slide up
\ : slide down
p : pull off
h : hamer on
x : you only hear a 'kssss', you don't hear the full note
~ : vibrite
. : a point beneeth a note means that you need to let it sounds softer  

This tab is made by Ben P. ...
Tap to rate this tab
# A B C D E F G H I J K L M N O P Q R S T U V W X Y Z