Song name
# A B C D E F G H I J K L M N O P Q R S T U V W X Y Z

Enter Shikari - Mothership tab

Mothership - Enter Shikari

This is the synth part tabbed. its pretty basic and in Drop C# but I'll tab it in each
the three basic tunings for no reason for those of you who like myself are to lazy to
your tuning. There are really like 4 parts to this but I could get these 2 which really 
all you need and I'll let you figure out its timing as to when it is in the song cause it
remixed soo much for its awesomeness.

Tabbed by: LightningLogan
Email: lightning.logan@hotmail.com

Tuning: Drop C#

D#|-9-9-12-9h11--9h11p9h12--11-|-------12----14----14p12h14-12----|
A#|----------------------------|-12-12----12----12----------------|
F#|----------------------------|----------------------------------|
C#|----------------------------|----------------------------------|
G#|----------------------------|----------------------------------|
C#|----------------------------|----------------------------------|


Tuning: Drop D

E|-8-8-11-8h10--8h10p8h11--10-|-------11----13----13p11h13-11----|
B|----------------------------|-11-11----11----11----------------|
G|----------------------------|----------------------------------|
D|----------------------------|----------------------------------|
A|----------------------------|----------------------------------|
D|----------------------------|----------------------------------|


Tuning: Drop C

D|-10-10-13-10h12--10h12p10h13--12-|-------13----15----15p13h15-13----|
A|---------------------------------|-13-13----13----13----------------|
F|---------------------------------|----------------------------------|
C|---------------------------------|----------------------------------|
G|---------------------------------|----------------------------------|
C|---------------------------------|----------------------------------|
Tap to rate this tab
 
# A B C D E F G H I J K L M N O P Q R S T U V W X Y Z