Song name
# A B C D E F G H I J K L M N O P Q R S T U V W X Y Z

Enter Shikari - Solidarity tab

Song: Solidarity
Artist: Enter Shikari
Album: Common Dreads

Tuning: Drop C
C G C F A D

H = hammer-on
P = pull-ff
T = tapping
^ = bend
Br = bend release
* = palm mute
/ = slide
( ) = optional, ghost note
~ = let ring

Sexy keyboard intro of awesomeness, then...

0:14 (Repeat 7 times)

D|----------------------------------|
A|----------------------------------|
F|----------------------------------|
C|----------------------------------|
G|----------------------------------|
C|-0-0-0-0-0-0-0-(10)/14-10-5-0-0-0-|
       * *

0:38 (8th time)

D|----------------------------------------------------|
A|----------------------------------------------------|
F|----------------------------------------------------|
C|----------------------------------t5p0-2h3-t5p0-2h3-|
G|----------------------------------------------------|
C|-0-0-0-0-0-0-0-(10)/14-10-5-0-0-0-------------------|
       * *

0:41

Tapping part is repeated 8 times

D|----------------------------------------------|
A|----------------------------------------------|
F|----------------------------------------------|
C|-t7p0-3h5p0-t7p0-3h5p0-t7p0-3h5p0-t10p0-3h5p0-|
G|----------------------------------------------|
C|----------------------------------------------|

D|---------------------------------------------|
A|---------------------------------------------|
F|---------------------------------------------|
C|-t8p0-3h5p0-t8p0-3h5p0-t8p0-3h5p0-t8p0-3h5p0-|
G|---------------------------------------------|
C|---------------------------------------------|

4th and 8th time

D|----------------------------------------------|
A|----------------------------------------------|
F|----------------------------------------------|
C|-t7p0-3h5p0-t7p0-3h5p0-t7p0-3h5p0-t10p0-3h5p0-|
G|----------------------------------------------|
C|----------------------------------------------|

D|-------------------------------------------------|
A|-------------------------------------------------|
F|-------------------------------------------------|
C|-t10p0-3h5p0-t10p0-3h5p0-t10p0-3h5p0-t10p0-3h5p0-|
G|-------------------------------------------------|
C|-------------------------------------------------|

1:08 (Repeat twice)

The bend is done by the nut, left to it
BR = bend, release

D|--------------------------|
A|--------------------------|
F|--------------------------|
C|-0~----0^br-----0---------|
G|-0~----0^br-----0---------|
C|-0~----0^br-----0---------|

1:22 (Repeat twice)

D|----------------------------------------------|
A|----------------------------------------------|
F|----------------------------------------------|
C|----------------------------------------------|
G|-0-0---0-0-0----0-0---0-0-1-1--1-1-0-0--0-0-0-|
C|-0-0---0-0-0----0-0---0-0-1-1--1-1-0-0--0-0-0-|
   * *   * * *    * *   * * * *  * * * *  * * *

AND NOW THE FLOOD GATES WILL OPEN!

1:35 (repeat 3 times)

D|--------------------------------|
A|--------------------------------|
F|--------------------------------|
C|-0-0------0-0------0-0------1-1-|
G|-0-0--0-0-0-0--0-0-0-0--0-0-1-1-|
C|-0-0--0-0-0-0--0-0-0-0--0-0-1-1-|
        * *      * *      * *

1:46 (4th time)

D|-------------------------------------------|
A|-------------------------------------------|
F|-------------------------------------------|
C|-0-0------0-0--0h7h8-t15p8p7-0h7h8-t17p8p7-|
G|-0-0--0-0-0-0------------------------------|
C|-0-0--0-0-0-0------------------------------|
        * *

1:49 (Repeat 4 times)

D|--------------------------------|
A|--------------------------------|
F|--------------------------------|
C|-0-0------0-0------0-0------1-1-|
G|-0-0--0-0-0-0--0-0-0-0--0-0-1-1-|
C|-0-0--0-0-0-0--0-0-0-0--0-0-1-1-|
        * *      * *      * *     

2:03 (Repeat 8 times, bend and release the 12)
BR = bend, release

D|--------------------------------|
A|------10-----------------10-----|
F|-10~--12^br-----10~-12~--12^br--|
C|--x--------------x---x----------|
G|--8~-------------8~-10~---------|
C|--------------------------------|

2:44

D|----------|
A|----------|
F|----10~---|
C|-----x----|
G|-----8~---|
C|----------|
Tap to rate this tab
# A B C D E F G H I J K L M N O P Q R S T U V W X Y Z