Song name
# A B C D E F G H I J K L M N O P Q R S T U V W X Y Z

Enter Shikari - No Sleep Tonight tab

D|----2------|----2------|
A|-----5---5-|-----5---5-|
F|---4----4--|---4----4--|
C|--2----2---|--2----2---|
G|-2---------|-2---------|
C|-----------|-----------|

Verse/Breakdown 

D|-------|-----------|
A|-------|-----------|
F|-------|-----------|
C|-222p0-|-2-22222p0-|
G|-222p0-|-2-22222p0-|
C|-222p0-|-2-22222p0-|

Chorus 1,2 + 3

D|------------------|-------------------|
A|------------------|-------------------|
F|------------------|-------------------|
C|-5555555555555555-|-22222222-44444444-|
G|-5555555555555555-|-22222222-44444444-|
C|-5555555555555555-|-22222222-44444444-|

Bridge (we'll embark...)

D|----------------------------------|
A|----------------------------------|
F|----------------------------------|
C|-10101010101010101010101010101010-|
G|-10101010101010101010101010101010-|
C|-10101010101010101010101010101010-|

D|-----------------------------------------------|
A|-----------------------------------------------|
F|-----------------------------------------------|
C|-99999999-121212121212121212121212121212121212-|
G|-99999999-121212121212121212121212121212121212-|
C|-99999999-121212121212121212121212121212121212-|

(what are we waiting for?) X2

D|----------------------------------------|
A|----------------------------------------|
F|-9/121212121212121212121212121212121212-|
C|-X-XXXXXXXXXXXXXXXXXXXXXXXXXXXXXXXXXXXX-|
G|-7/101010101010101010101010101010101010-|
C|----------------------------------------|

on the 3rd time round play:

D|------------------------------------------------------|
A|------------------------------------------------------|
F|-9/1212121212121212/1414141414141414/7777777777777777-|
C|-X-XXXXXXXXXXXXXXXX-XXXXXXXXXXXXXXXX-XXXXXXXXXXXXXXXX-|
G|-7/1010101010101010/1212121212121212/5555555555555555-|
C|------------------------------------------------------|

Chorus 4

D|------------------|-------------------|
A|------------------|-------------------|
F|------------------|-------------------|
C|-8888888888888888-|-55555555-77777777-|
G|-8888888888888888-|-55555555-77777777-|
C|-8888888888888888-|-55555555-77777777-|

Outro

Chorus 1

D|------------------|-------------------|
A|------------------|-------------------|
F|------------------|-------------------|
C|-1111111111111111-|-00000000-33333333-|
G|-1111111111111111-|-00000000-33333333-|
C|-1111111111111111-|-00000000-33333333-| 
Tap to rate this tab
# A B C D E F G H I J K L M N O P Q R S T U V W X Y Z