Song name
# A B C D E F G H I J K L M N O P Q R S T U V W X Y Z

Enter Shikari - Gap In The Fence tab

Standard E tuning

Capo 3


E|----2-----0---------------0---------|----0-----0---------------0---------|
B|------3-------3---0---3-------3-----|------3-------3---0---3-------3-----|
G|----------------0-------0-------0---|------------------------------------|
D|--------0---------------------------|--------0-------0-------0-------0---|
A|----2-------2-------2-------2-------|----0-------0-------0-------0-------|
E|------------------------------------|------------------------------------|

E|----2-----0---------0---------------|---2-----0----------------0---------|
B|------3-------3-------3---0---3-----|------3-------3---0---3-------3-----|
G|------------------------------------|------------------------------------|
D|--------0-------0-------0-------0---|--------0-------0-------0-------0---|
A|------------------------------------|----2-------2-------2-------2-------|
E|----2-------2-------3-------3-------|------------------------------------|
Tap to rate this tab
# A B C D E F G H I J K L M N O P Q R S T U V W X Y Z