Enter Shikari - Thumper tab

I saw a tab for this song on here and it wasn't very accurate so i worked it out myself, 
hope this helps (:

Intro

  (slide from the bridge (b) to the 10th fret)
e|----------------------------|
B|----------------------------|
G|----------------------------|
D|----------------------------|
A|-b////////////////////////8-|
E|-b////////////////////////8-|

e|----------------------------|----------------------------|
B|----------------------------|----------------------------|
G|-6-6--6-6-98--6-6--6-6-1312-|-11-11-11-x-7--10-10-10-x-5-|
D|-6-6--6-6-98--6-6--6-6-1312-|-11-11-11-x-7--10-10-10-x-5-|
A|-4-4--4-4-76--4-4--4-4-1110-|-9--9--9--x-5--8--8--8--x-3-|
E|----------------------------|----------------------------|

----------------------------|---------------------------|
----------------------------|---------------------------|
-6-6--6-6-98--6-6--6-6-1312-|---------------------------|
-6-6--6-6-98--6-6--6-6-1312-|---------------------------|
-4-4--4-4-76--4-4--4-4-1110-|-b/////////////////////10--|
----------------------------|-b/////////////////////10--|

No guitar for the rest of the verse.

Chorus [x4]

e|-----------------|-----------------|
B|-----------------|-----------------|
G|-6-6-6-6-6-6-6-6-|-8-8-8-8-8-8-8-8-|
D|-6-6-6-6-6-6-6-6-|-8-8-8-8-8-8-8-8-|
A|-4-4-4-4-4-4-4-4-|-6-6-6-6-6-6-6-6-|
E|-----------------|-----------------|

-----------------|------------------|
-----------------|------------------|
-9-9-9-9-9-9-9-9-|-11-11-11--13--11-|
-9-9-9-9-9-9-9-9-|-11-11-11--13--11-|
-7-7-7-7-7-7-7-7-|-9--9--9---11--9--|
-----------------|------------------|

Post-chorus ('We will, we will never be safe').

e|-----------------|-------------------------|
B|-----------------|-------------------------|
G|-----6-----6-----|-----6-----8--8----------|
D|-----6-----6-----|-----6-----8--8----------|
A|-----4-----4-----|-----4-----6--6----------|
E|-----------------|-------------------------|       < the post-chorus is either that
                                              or no guitar.
-----------------|------------------|
-----------------|------------------|
-----9-----9-----|----11-----13--11-|
-----9-----9-----|----11-----13--11-|
-----7-----7-----|----9------11--9--|
-----------------|------------------|

Breakdown (quiet bit) (no guitar).

Pre-chorus (after 'rise to our feet') (the guitar is the same as the chorus).

Chorus again.

Post-chorus again.

Chorus again.

Intro again without the first slide.




Hope that helped (:
Tap to rate this tab
 
# A B C D E F G H I J K L M N O P Q R S T U V W X Y Z