Song name
# A B C D E F G H I J K L M N O P Q R S T U V W X Y Z

Enter Shikari - Arguing With Thermometers tab

TUNING: D Tuning (D G C F A d)

KEY:
~~ = Let Ring
/ = Slide Up
h = Hammer On



d|------------------------------|
A|------------------------------|
F|-----------5~~----------------|
C|-----------2~~----------------|
G|-----------3~~----------------|
D|-0h2222-------0-2-5-4-0--2--2-|


d|-------------------|
A|-------------------|
F|-----------5~~-----|
C|-----------2~~-----|
G|-----------3~~-----|
D|-0h2222-------5202-|


d|-------------------------------------|
A|-------------------------------------|
F|-----------5~~-----------------------|
C|-----------2~~-----------------------|
G|-----------3~~-----------------------|
D|-0h2222-------0-2-5-4-0--2--2--22000-|


d|--------------------------------|
A|--------------------------------|
F|-----------5~~------------------|
C|-----------2~~------------------|
G|-----------3~~------------------|
D|-0h2222-------5202----0-2-5-4-0-|


d|-9-9--9-9-9-------------------9-9--9-9-9-------------------|
A|-1010-101010-9-9-9-9---10--10-1010-101010-9-9-9-9----------|
F|-1111-111111-9-9-9-9---9---9--1111-111111-9-9-9-9---9---9--|
C|-------------11111111--11--11-------------11111111---------|       x4
G|-----------------------------------------------------------|
D|-----------------------------------------------------------|


d|----------------------------------------|
A|----------------------------------------|
F|----------------------------------------|
C|----------------------------------------|       x4
G|----------------------------------------|
D|-2-2-2-2-2-2-2-/14-14-14-14-14-14-14-14-|


d|-9-9--9-9-9-------------------9-9--9-9-9-------------------|
A|-1010-101010-9-9-9-9---10--10-1010-101010-9-9-9-9----------|
F|-1111-111111-9-9-9-9---9---9--1111-111111-9-9-9-9---9---9--|
C|-------------11111111--11--11-------------11111111---------|       x4
G|-----------------------------------------------------------|
D|-----------------------------------------------------------|


d|----------------------------------------|
A|----------------------------------------|
F|----------------------------------------|
C|----------------------------------------|       x4
G|----------------------------------------|
D|-2-2-2-2-2-2-2-/14-14-14-14-14-14-14-14-|


d|-----------------|
A|-----------------|
F|-----------------|
C|-----------------|       x3
G|-----------------|
D|-0h2222----------|


A|-----------------------------------------------|
F|-----------------------------------------------|
C|-------------------------------------4---5---4-|
G|-------------------------------------4---5---4-|
D|-2--2--2--2-2-2-2-2-2-2-2-2-2-2-2-2--2---3---2-|
Tap to rate this tab
# A B C D E F G H I J K L M N O P Q R S T U V W X Y Z