Song name
# A B C D E F G H I J K L M N O P Q R S T U V W X Y Z

Enter Shikari - Stand Your Ground This Is Ancient Land tab

Song: Stand Your Ground, This Is Ancient Land
Artist: Enter Shikari
Album: Take to the Skies
Year: 2007

Synth transcribed for guitar:

d#-------------|
A#-10--6--5--3-|
F#-------------|
C#-------------|
G#-------------|
C#-------------|

Guitar now comes in:

d#-13--12--13--12--13--12--13--12--13--12--13--12-----|
A#----------------------------------------------------|
F#----------------------------------------------------|
C#-------------------------------------------------15-|
G#----------------------------------------------------|
C#----------------------------------------------------|

d#-13--12--13--12--13--12--13--12--13--12--13--12--15-|
A#----------------------------------------------------|
F#----------------------------------------------------|
C#----------------------------------------------------|
G#----------------------------------------------------|
C#----------------------------------------------------|

d#----17--17--17--15-|
A#-15----------------|
F#-------------------|
C#-------------------|
G#-------------------|
C#-------------------|

d#-13--12--13--12--13--12--13--12--13--12--13--12-----|
A#----------------------------------------------------|
F#----------------------------------------------------|
C#-------------------------------------------------15-|
G#----------------------------------------------------|
C#----------------------------------------------------|


d#-13--12--13--12--13--12--13--12--13--12--13--12--15-|
A#----------------------------------------------------|
F#----------------------------------------------------|
C#----------------------------------------------------|
G#----------------------------------------------------|
C#----------------------------------------------------|

d#----17--15-|
A#-15--------|
F#-----------|
C#-----------|
G#-----------|
C#-----------|
Tap to rate this tab
# A B C D E F G H I J K L M N O P Q R S T U V W X Y Z