Song name
# A B C D E F G H I J K L M N O P Q R S T U V W X Y Z

Enter Shikari - Pack Of Thieves tab

(/) Slide Up  (\) Slide Down  (h) Hammer On  (p) Pull Off  (b) Bend (r) Release (v) Vibrato


  POWERCHORD
  AFTER INTRO  VERSE x2
D|-----------|---------------------------------------------------------------|
A|-----------|---------------------------------------------------------------|
F|-----------|---------------------------------------------------------------|
C|--0~-------|--0-0-0-0-0-0-0-0-2-2-2-2/9-9-5-5-5-5-5-5-5-5-7-7-7-7-7-7-7-7--|
G|--0~-------|--0-0-0-0-0-0-0-0-2-2-2-2/9-9-5-5-5-5-5-5-5-5-7-7-7-7-7-7-7-7--|
C|--0~-------|--0-0-0-0-0-0-0-0-2-2-2-2/9-9-5-5-5-5-5-5-5-5-7-7-7-7-7-7-7-7--|

  PRE CHORUS x2
D|---------------------------------------------------------------------------|
A|---------------------------------------------------------------------------|
F|-----------------------------------/11-9-9-9-9-/11-9-9-9-9-----------------|
C|--9-9-9-9-9-9-9-9-5-5-5-5-5-5-5-5------------------------------------------|
G|--9-9-9-9-9-9-9-9-5-5-5-5-5-5-5-5------------------------------------------|
C|--9-9-9-9-9-9-9-9-5-5-5-5-5-5-5-5------------------------------------------|

  CHORUS x2
D|---------------------------------------------------------------------------|
A|---------------------------------------------------------------------------|
F|---------------------------------------------------------------------------|
C|--9-9-99999999-5-5-55555555-0-0-00000000-0-0-00000000----------------------|
G|--9-9-99999999-5-5-55555555-0-0-00000000-0-0-00000000----------------------|
C|--9-9-99999999-5-5-55555555-0-0-00000000-0-0-00000000----------------------|


 VERSE, PRE CHORUS, CHORUS...

 TAPPING BIT (Just do this over and over again for a while... I think it's 11 times)
D|---------------------------------------------------------------------------|
A|---------------------------------------------------------------------------|
F|--h9p4h7p4-----------------------------------------------------------------|
C|---------------------------------------------------------------------------|
G|---------------------------------------------------------------------------|
C|---------------------------------------------------------------------------|

  BREAKDOWN x2
D|---------------------------------------------------------------------------|
A|---------------------------------------------------------------------------|
F|--10-10----10-10----10-10----10-10-----------------------------------------|
C|--9--9-----9--9-----9--9-----9--9-----0-0000-2\----------------------------|
G|--9--9-----9--9-----9--9-----9--9-----0-0000-2\----------------------------|
C|--9--9-----9--9-----9--9-----9--9-----0-0000-2\----------------------------|

Yeah then play the chorus again and verse once only ending on open.
Tap to rate this tab
 
# A B C D E F G H I J K L M N O P Q R S T U V W X Y Z