Song name
# A B C D E F G H I J K L M N O P Q R S T U V W X Y Z

Enter Shikari - Meltdown tab

Band: Enter Shikari
Song: Meltdown
Album: A Flash Flood Of Colour 
Tuning: Drop C
Tabbed by Ross123


x-dead note
h-hammer on
p-pull off
/-slide

Took a lot from grave robbers tab but a few things that I wanted to change



Intro x2
D|----------|
A|----------|
F|----------|
C|-0~-------|   second time round bend behind the nut
G|-0~-------|
C|-0~-------|

Intro Part 2 x1
D|----------------------------------------------------------------------|
A|----------------------------------------------------------------------|
F|----------------------------------------------------------------------|
C|-121212121212121212121212121212128888888822222222333333335555555------|
G|-1212121212121212101010101010101088888888222222223333333355555555-----|
C|-1212121212121212101010101010101088888888222222223333333355555555-----|

Breakdown x8
D|----------------------------------------------------------------------|
A|----------------------------------------------------------------------|
F|----------------------------------------------------------------------|
C|----------------------------------------------------------------------|
G|-0--0--000--000~0-----------------------------------------------------|
C|-0--0--000--000~0-----------------------------------------------------|



Pre-Chorus x3


D|--------------------------------------------------------------------|
A|--------------------------------------------------------------------|
F|-----------------------10x-9x-----------9h10p9h10p9h10--------------|
C|------------------------------12x-10x-------------------------------|
G|-0-0-000------------------------------------------------------------|
C|-0-0-000/12-1212-0-00----------------------------------------------|
PM                                   

Chorus lead in

D|------------------------------------------------------|
A|------------------------------------------------------|
F|------------------------------------------------------|
C|-555555557777777788888888111111111111-----------------|
G|-555555557777777788888888111111111111-----------------|
C|-555555557777777788888888111111111111-----------------|


Chorus x4
D|--------------------------------------------|
A|--------------------------------------------|
F|-----------7777------33333333---------------|
C|-00000000--5555------33333333--2222---------|
G|-00000000--3333------11111111--2222---------|
C|-00000000----------------------2222---------|

D|----------------------------------------------------------------------|
A|----------------------------------------------------------------------|
F|----------------------------------------------------------------------|
C|-1212121212121212121212121212121288888888222222223333333355555555-----|
G|-1212121212121212101010101010101088888888222222223333333355555555-----|
C|-1212121212121212101010101010101088888888222222223333333355555555-----|


Breakdown x8
D|----------------------------------------------------------------------|
A|----------------------------------------------------------------------|
F|----------------------------------------------------------------------|
C|----------------------------------------------------------------------|
G|-0--0--000--000~0-----------------------------------------------------|
C|-0--0--000--000~0-----------------------------------------------------|



Pre-Chorus x3


D|--------------------------------------------------------------------|
A|--------------------------------------------------------------------|
F|-----------------------10x-9x-----------9h10p9h10p9h10--------------|
C|------------------------------12x-10x-------------------------------|
G|-0-0-000------------------------------------------------------------|
C|-0-0-000/12-1212-0-00----------------------------------------------|
PM                                   

Chorus lead in

D|------------------------------------------------------|
A|------------------------------------------------------|
F|------------------------------------------------------|
C|-555555557777777788888888111111111111-----------------|
G|-555555557777777788888888111111111111-----------------|
C|-555555557777777788888888111111111111-----------------|


Chorus x4
D|--------------------------------------------|
A|--------------------------------------------|
F|-----------7777------33333333---------------|
C|-00000000--5555------33333333--2222---------|
G|-00000000--3333------11111111--2222---------|
C|-00000000----------------------2222---------|

D|----------------------------------------------------------------------|
A|----------------------------------------------------------------------|
F|----------------------------------------------------------------------|
C|-1212121212121212121212121212121288888888222222223333333355555555-----|
G|-1212121212121212101010101010101088888888222222223333333355555555-----|
C|-1212121212121212101010101010101088888888222222223333333355555555-----|





Outro x4
D|---------------------------------------------------------------|
A|---------------------------------------------------------------|
F|---------------------------------------------------------------|
C|-----------------------8----3----------------------------------|
G|-----------------------8----3----------------------------------|
C|-0--------/12-1212p0---8----3----------------------------------|
Tap to rate this tab
# A B C D E F G H I J K L M N O P Q R S T U V W X Y Z