Song name
# A B C D E F G H I J K L M N O P Q R S T U V W X Y Z

Enter Shikari - Warm Smiles Do Not Make You Welcome Here tab

Warm Smiles Do Not Make You Welcome Here
A Flash Flood Of Colour (2012)
Enter Shikari

DROP C TUNING
Not a lot of guitar in this song, but very fun to play. Message me if you have any 
questions. Enjoy (:

Intro/Verse:
|--------------------------------------|
|-10--10/11-11-11-11-11-11-11-11\10-10-|
|--x---x-----x--x--x--x--x--x--x-----x-|
|--7---7/-8--8--8--8--8--8--8--8\-7--7-|
|--------------------------------------|
|--------------------------------------|

|-----------------------------------------------|
|-10--10/8-8-8-8-8-8-8-8-13-10--10-10--10-10-10-|
|--x---x---x-x-x-x-x-x-x-x---x---x--x---x--x--x-|
|--7---7/5-5-5-5-5-5-5-5-10--7---7--7---7--7--7-|
|-----------------------------------------------|
|-----------------------------------------------|

"Lightning strikes! ...A flash flood of colour"
|-20-20-20-20-20-20-20-19-19-19-19-19-19-19-19-17-17-17-17-17-17-17-17-|
|----------------------------------------------------------------------|
|----------------------------------------------------------------------|
|----------------------------------------------------------------------|
|----------------------------------------------------------------------|
|----------------------------------------------------------------------|

Awesome riff:
|--------------------------------------------------------------|
|-------------------------------------------------------13\10~-|
|---------------------------------7\5---10\9----10/12----x-----|
|----3-----------0-2p0-3p0-5p0-------------------x------10\-7~-|
|-33-3-3----3------------------00-----0------0---8/10-0--------|
|-33-3-3-3h5-5~----------------00-----0------0--------0--------|
  ..   .                       ..     .      .        .

|------------------------------------------------------|
|------------------------------------------------------|
|---------------------------------7\5---10\9-----------|
|----3-----------0-2p0-3p0-5p0-------------------------|
|-33-3-3----3------------------00-----0------0-0000000-|
|-33-3-3-3h5-5~----------------00-----0------0-0000000-|
  ..   .                       ..     .      . .......

Don't forget to rate and comment!
Tap to rate this tab
# A B C D E F G H I J K L M N O P Q R S T U V W X Y Z