Song name
# A B C D E F G H I J K L M N O P Q R S T U V W X Y Z

Enter Shikari - Wall tab

This is how i play Wall, i play it in standard E instead of drop C. You can play in drop 
C if you wish but i am not tabbing it :D
I dont think my strumming pattern is correct in this tab as it is hard to type the 
pattern onto this tab. But if you listen to the song you can figure it out. It is pretty simple.

Chorus:


|------------------------------------------------------------|
|------------------------------------------------------------|
|--15-15-15-13-13-13-11-11-11-11-11-11-11-13-13-13-15-15-15--|
|---x--x--x--x--x--x--x--x--x--x--x--x--x--x--x--x--x--x--x--|
|--13-13-13-11-11-11--9--9--9--9--9--9--9-11-11-11-13-13-13--|
|------------------------------------------------------------|

|---------------------------------------------------------------|
|---------------------------------------------------------------|
|--15-15-15-13-13-13-11-11-11-11-11-11-11-11-16-16-16-16-16-16--|
|---x--x--x--x--x--x--x--x--x--x--x--x--x--x--x--x--x--x--x--x--|
|--13-13-13-11-11-11--9--9--9--9--9--9--9--9-14-14-14-14-14-14--|
|---------------------------------------------------------------|

Bridge onwards:

|---------------------------------------|
|---------------------------------------|
|--9----13---11----13----9--------------|
|--x-----x----x-----x----x--- ----------|
|--7-x8-11-x3-9-x8-11-x3-7-x8-----------|
|---------------------------------------|

Leave a comment is you have a correction or question :)
Tap to rate this tab
 
# A B C D E F G H I J K L M N O P Q R S T U V W X Y Z