Song name
# A B C D E F G H I J K L M N O P Q R S T U V W X Y Z

Enter Shikari - Stalemate tab

-------------------------------------------------------------------------------
                                          Stalemate - Enter Shikari
-------------------------------------------------------------------------------
Tabbed by: Milo Larkin/Ghefly
Email:

This is my interpretation of the song Stalemate by Enter Shikari.
It's very hard to hear what the guitar's doing on the record but I got it all.
I think.

Tuning: Standard

e|---------------------------------------------------------------------------|
B|---------------------------------------------------------------------------|
G|-------0----------0---0-------0-0-------0-0--------------------------------|
D|---5-----5----5-----5-----4---------4--------------------------------------|
A|-7---7------7---7-------7---7-----7---7------------------------------------|
E|---------------------------------------------------------------------------|

e|---------------------------------------------------------------------------|
B|---------------------------------------------------------------------------|
G|-------0-------0-------0-----0-----0-----0---------------------------------|
D|---5-------5-----5---5-----5-----5-----5-----------------------------------|
A|---------------------------------------------------------------------------|
E|-8---8---8---8-----5-----5-----5-----5-------------------------------------|

The bit after the entro, pluck this chord a few times:

e|-3--|
B|-x--|
G|-0--|
D|-5--|
A|----|
E|----|

e|---------------------------|  |----------------------------------------|
B|----3-----3------3-----3---|  |---3--3--3--3---------------------------|
G|--4---4-4---4--0---0-0---0-|  |--0--0--0--0----------------------------|
D|-5-5---5-5----5-5---5-5----|  |-5--5--5--5-----------------------------|
A|---------------------------|  |----------------------------------------|
E|---------------------------|  |----------------------------------------|

e|---------------|  |----------------------------------------------------|
B|-3-3-3-3-3-3---|  |--------1--0----------------------------------------|
G|-0-0-0-0-0-0---|  |--------2--4----------------------------------------|
D|-5-5-5-5-5-5---|  |--------2--5----------------------------------------|
A|---------------|  |-333332-0--5----------------------------------------|
E|---------------|  |-----------3----------------------------------------|

Guitar 1:

e|-----------------------------------------------------------------------|
B|-8-7---8-7---8-7---8-7-------------------------------------------------|
G|-----7-----7-----7----7------------------------------------------------|
D|-----------------------------------------------------------------------|
A|-----------------------------------------------------------------------|
E|-----------------------------------------------------------------------|

Guitar 2:

e|---------------------------------------------------------------------------|
B|-12-10-8-12-10-8-----------------------------------------------------------|
G|---------------------------------------------------------------------------|
D|---------------------------------------------------------------------------|
A|---------------------------------------------------------------------------|
E|---------------------------------------------------------------------------|

Guitar 3:

e|-10-7---10-7---10-7---10-7-------------------------------------------------|
B|------8------8------8------8-----------------------------------------------|
G|---------------------------------------------------------------------------|
D|---------------------------------------------------------------------------|
A|---------------------------------------------------------------------------|
E|---------------------------------------------------------------------------|

The outro chords are G, Am, C in case you want to play some power chords during
the harmony solo, although there isn't any other guitar on the record - it's all
chunky bass and heavy drums.



************************************

| /   slide up
| \   slide down
| h   hammer-on
| p   pull-off
| ~   vibrato
| +   harmonic
| x   Mute note
| b   Bend
| pb  Pre-bend
| br  Bend release
| pbr Pre-bend release
| brb Bend release bend

************************************
Tap to rate this tab
 
# A B C D E F G H I J K L M N O P Q R S T U V W X Y Z