Song name
# A B C D E F G H I J K L M N O P Q R S T U V W X Y Z

Enter Shikari - Gandhi Mate Gandhi tab

-------------------------------------------------------------------------------
                             Gandhi Mate, Gandhi - ENTER SHIKARI
-------------------------------------------------------------------------------
Tabbed by: JJ
E-mail: jirkujaroslav@seznam.cz

Tuning: Drop C

This is probably a very first tab for this song here, which is crazy... IŽll appreciate 
and acknowledge
all constructive corrections (please on my email). Especially the "tapping" part was 
really tough to catch.
Thanks!


Guitar starts at 1:10

d|-----------------------------------------------------------------------------------------------|
a|--------------------------5h7------------------------------------------------------------------|
f|-------[-3 5h6p5 4 6h7p6-----------------------------------------------]-----------------------|
c|-3333--[------------------------------3333---10 10 10 9 444-0* 0*---33-]-----8 8 8 8 88888/----|
g|-3333--[------------------------------3333---8---8--8-7-222-0*-0*---33-]-----6-6-6-6-66666/----|
c|-3333--[------------------------------3333---8---8--8-7-222-0*-0*---33-]-----6-6-6-6-66666/----|
    donŽt let sound!           "RIFF1" 3x fully, then just the "tapping" part and end on 
the 668


calm down, remember Gandhi...
1:45
d|---------------------------------------------------------------------------|
a|-----18--18--18--18--16--16--16--16--15--15--15--15--15--15--15~ ----------|
f|------17--17--17--17--15--15--15--15--15--15--15--15--15--15---------------|
c|---------------------------------------------------------------------------|
g|---------------------------------------------------------------------------|
c|---------------------------------------------------------------------------|

then

d|----------|
a|----------|
f|----------|
c|---3~ 3~ -|  and back to RIFF1
g|---3~ 3~ -|
c|---3~ 3~ -|


2:20 (We stop, think...)

Mute your strings and tap this:
d|---------------------------------------------------------------------------|
a|---------------------------------------------------------------------------|
f|--------------------10------10---------------------------------------------|
c|-10--------10---11------------11-------------------------------------------|
g|----888888----8----8--8888-------------------------------------------------|
c|---------------------------------------------------------------------------|

2nd guitar plays palm-muted [333xxx] after a while in the background.


Then Žtil the rest of the song thereŽs [333xxx] with whammy, tremolo, phaser or whatever 
you got..) Emergency frequency!



All right, this is like a spine of the song, hopefully (with your help) IŽll add the 
missing parts soon.
Tap to rate this tab
 
# A B C D E F G H I J K L M N O P Q R S T U V W X Y Z