Song name
# A B C D E F G H I J K L M N O P Q R S T U V W X Y Z

Enter Shikari - System Meltdown tab

SYSTEM...

Intro
This is the guitar riff for the string bit
D-------------------|
A-3~3~6~6~685~5~5~~6|
F-------------------| X4
C-------------------|
G-------------------|
C-------------------|

'There was a house...'
String bit
D-------------------|
A-3~3~6~6~685~5~5~~6|
F-------------------| X4
C-------------------|
G-------------------|
C-------------------|

'There was a house...' (Second time)
String bit
D-------------------|
A-3~3~6~6~685~5~5~~6|
F-------------------| X8
C-------------------|
G-------------------|
C-------------------|

Lead (what Rory plays)
D----18~17~~~~~~~~~~~|
A-15~----------------|
F--------------------| X8
C--------------------|
G--------------------|
C--------------------|

'When I was little...'
This is the guitar riff for the synth part
D-13~~~12~13~10~~~6~5~----------------|
A---------------------6~~~~~~~~~~~~~~~|
F-------------------------------------|
C-------------------------------------|
G-------------------------------------|
C-------------------------------------|

D-13~~~12~13~10~~~6~5~--------10~~~~~~~|
A---------------------6~~~~~~~---------|
F--------------------------------------|
C--------------------------------------|
G--------------------------------------|
C--------------------------------------|

'It was crystal clear to me back then...'
Lead (what Rory plays)
D----18~17~~~~~~~~~~~|
A-15~----------------|
F--------------------| X4
C--------------------|
G--------------------|
C--------------------|

'So this is such an exciting time...'
String bit
D-------------------|
A-3~3~6~6~685~5~5~~6|
F-------------------| X4
C-------------------|
G-------------------|
C-------------------|

Lead (what Rory plays)
D----18~17~~~~~~~~~~~|
A-15~----------------|
F--------------------| X4
C--------------------|
G--------------------|
C--------------------|

...MELTDOWN

D---------------------------------|
A---------------------------------|
F---------------------------------| X2
C-0~~~~~~~~~~~~~~~~~~~~~~~~~~~~~~~|
G-0~~~~~~~~~~~~~~~~~~~~~~~~~~~~~~~|
C-0~~~~~~~~~~~~~~~~~~~~~~~~~~~~~~~|

'This is gonna change everything!'
D-------------------------------------------------|
A-------------------------------------------------|
F-7777777755555555--------------------------------|
C-777777775555555588888888222222223333333355555555|
G-555555553333333388888888222222223333333355555555|
C-----------------88888888222222223333333355555555|

'System Meltdown, Meltdown, Meltdown'
Pretty fast palm muting here
D---------------------------------|
A---------------------------------|
F---------------------------------| X8
C---------------------------------|
G-0~~~0~~~--------00000000--------|
C-0~~~0~~~--------00000000--------|
PM*---*-----------********--------|

String bit (comes in halfway through)
D-------------------|
A-3~3~6~6~685~5~5~~6|
F-------------------| X4
C-------------------|
G-------------------|
C-------------------|

'Stand up...'
D---------------------------------|
A---------------------------------|
F---------------------------------| X3
C-0~~~~~~~/12~~~\08888888822222222|
G-0~~~~~~~/12~~~\08888888822222222|
C-0~~~~~~~/12~~~\08888888822222222|

'Countries are just lines...'
D-----------------------------------------|
A-----------------------------------------|
F-----------------------------------------|
C-5555555577777777888888881212121212121212|
G-5555555577777777888888881212121212121212|
C-5555555577777777888888881212121212121212|

'Inside this sick foundain...'
D---------------------------------|
A---------------------------------|
F-777777775~----------------------| X4
C-777777775~------888888882~------|
G-555555553~------888888882~------|
C-----------------888888882~------|

'Fuck all boarders...'
D-------------------------------------------------|
A-------------------------------------------------|
F-7777777755555555--------------------------------|
C-777777775555555588888888222222223333333355555555|
G-555555553333333388888888222222223333333355555555|
C-----------------88888888222222223333333355555555|

'System Meltdown, Meltdown, Meltdown'
D---------------------------------|
A---------------------------------|
F---------------------------------| X8
C---------------------------------|
G-0~~~0~~~--------00000000--------|
C-0~~~0~~~--------00000000--------|
PM*---*-----------********--------|

String bit (comes in halfway through)
D-------------------|
A-3~3~6~6~685~5~5~~6|
F-------------------| X4
C-------------------|
G-------------------|
C-------------------|

'Stand up...'
D---------------------------------|
A---------------------------------|
F---------------------------------| X3
C-0~~~~~~~/12~~~\08888888822222222|
G-0~~~~~~~/12~~~\08888888822222222|
C-0~~~~~~~/12~~~\08888888822222222|

'Countries are just lines...'
D-----------------------------------------|
A-----------------------------------------|
F-----------------------------------------|
C-5555555577777777888888881212121212121212|
G-5555555577777777888888881212121212121212|
C-5555555577777777888888881212121212121212|

'Inside this sick foundain...'
D---------------------------------|
A---------------------------------|
F-777777775~----------------------| X4
C-777777775~------888888882~------|
G-555555553~------888888882~------|
C-----------------888888882~------|

'We begin to actually smile again...'
D-------------------------------------------------|
A-------------------------------------------------|
F-7777777755555555--------------------------------|
C-777777775555555588888888222222223333333355555555|
G-555555553333333388888888222222223333333355555555|
C-----------------88888888222222223333333355555555|

'Cause I know that WE ARE ONE!'
D---------------------------------|
A---------------------------------|
F---------------------------------| X4
C-0~~~~~~~/12~~~\08888888822222222|
G-0~~~~~~~/12~~~\08888888822222222|
C-0~~~~~~~/12~~~\08888888822222222|
Tap to rate this tab
# A B C D E F G H I J K L M N O P Q R S T U V W X Y Z