Song name
# A B C D E F G H I J K L M N O P Q R S T U V W X Y Z

Enter Shikari - Sssnakepit tab

Guitar comes in around 0:33
D-----------------------------------|
A-----------------------------------|
F----77777---77777----77777---------| X2
C-0~~777776~~777771~p0777776~66|6~66|
G-0~~555556~~555551~p0555556~66|6~66|
C-0~~-----6~~-----1~p0-----6~66|6~66|
 Make sure you pause right here^

'Knocked off my feet from the backdraft...'
D-----------------------------------|
A-----------------------------------|
F----77777---77777----77777---------| X4
C-0~~777776~~777771~p0777776~66|6~66|
G-0~~555556~~555551~p0555556~66|6~66|
C-0~~-----6~~-----1~p0-----6~66|6~66|
 Make sure you pause right here^

'Come and join the party leave anxieties behind...'
D------------------------------------------------------------------|
A------------------------------------------------------------------|
F------------------777777777777------------------------------------| X2
C-555555555555-----777777777777----88888888888888883333333333333333|
G-555555555555-----55555555555553--88888888888888883333333333333333|
C-555555555555810------------------88888888888888883333333333333333|

Interlude
D-----------------------------------|
A-----------------------------------|
F----77777---77777----77777---------| X2
C-0~~777776~~777771~p0777776~66|6~66|
G-0~~555556~~555551~p0555556~66|6~66|
C-0~~-----6~~-----1~p0-----6~66|6~66|
 Make sure you pause right here^

'Oh you're not gonna believe this...'
D-----------------------------------|
A-----------------------------------|
F----77777---77777----77777---------| X2
C-0~~777776~~777771~p0777776~66|6~66|
G-0~~555556~~555551~p0555556~66|6~66|
C-0~~-----6~~-----1~p0-----6~66|6~66|
 Make sure you pause right here^

'Yeah, yeah we're nice guys... UNTIL WE'RE NOT!'
It is slightly different each time around believe it or not 
D-----------------------------|
A-----------------------------|
F---------6~--------------3~~~|
C---------6~--------------3~~~|
G-0~3~1~0~4~0~1~3~003~1~0~1~~~|
C-0~3~1~0~--0~1~3~003~1~0~----|
PM*-*-*-*---*-*-*-***-*-*-----|

D-----------------------------|
A-----------------------------|
F---------6~--------------3~~~|
C---------6~--------------3~~~|
G-003~1~0~4~0~1~3~003~1~0~1~~~|
C-003~1~0~--0~1~3~003~1~0~----|
PM***-*-*---*-*-*-***-*-*-----|

D-----------------------------|
A-----------------------------|
F---------66--------------3~~~|
C---------66--------------3~~~|
G-0~3~1~00440~1~3~0~310~1~1~~~|
C-0~3~1~00--0~1~3~0~310~1~----|
PM*-*-*-**--*-*-*-*-***-*-----|

D-----------------------------|
A-----------------------------|
F---------6~--------------3~~~|
C---------6~--------------3~~~|
G-003~1~004~0~1~3~003~1~0~1~~~|
C-003~1~00--0~1~3~003~1~0~----|
PM***-*-**--*-*-*-***-*-*-----|


'Come and join the party leave anxieties behind...'
D------------------------------------------------------------------|
A------------------------------------------------------------------|
F------------------777777777777------------------------------------| X2
C-555555555555-----777777777777----88888888888888883333333333333333|
G-555555555555-----55555555555553--88888888888888883333333333333333|
C-555555555555810------------------88888888888888883333333333333333|

'Come and join the party leave anxieties behind...' GANG VOCALS
D------------------------------------------------------------------|
A------------------------------------------------------------------|
F------------------7~~~~~~~~~~~------------------------------------| X2
C-5~~~~~~~~~~~-----7~~~~~~~~~~~----8~~~~~~~~~~~~~~~3~~~~~~~~~~~~~~~|
G-5~~~~~~~~~~~-----5~~~~~~~~~~~53--8~~~~~~~~~~~~~~~3~~~~~~~~~~~~~~~|
C-5~~~~~~~~~~~810------------------8~~~~~~~~~~~~~~~3~~~~~~~~~~~~~~~|
Tap to rate this tab
# A B C D E F G H I J K L M N O P Q R S T U V W X Y Z