Song name
# A B C D E F G H I J K L M N O P Q R S T U V W X Y Z

Enter Shikari - When A Jealous Man Finds A Gun tab

Help us improve GuitareTab! Take a short survey!
ENTER SHIKARI - WHEN A JEALOUS MAN FINDS A GUN
DROPPED D

INTRO
|----------------------------------------------------------------------|
|----------------------------------------------------------------------|
|-7-7--7/14----7-7--7/14----7-7--7/14----7-----------------------------|
|-x-x--x/-x----x-x--x/-x----x-x--x/-x----x-----------------------------|
|-5-5--5/12----5-5--5/12----5-5--5/12----5-----------------------------|
|----------------------------------------------------------------------|

the rest of the band come in here...
|----------------------------------------------------------------------|
|----------------------------------------------------------------------|
|-7-7--7/14----7-7--7/14----11-11----11--------------------------------|
|-x-x--x/-x----x-x--x/-x----------------12----12-12----12--------------|
|-5-5--5/12----5-5--5/12----------------------------------12-----------|
|----------------------------------------------------------------------|

For the 11th and 12th frets in the fast part use your plucking hand!

|----------------------------------------------------------------------|
|----------------------------------------------------------------------|
|-7-7--7/14----7-7--7/14----11-11----11--------11p7h9h11p7h9h11p7h9h12-|
|-x-x--x/-x----x-x--x/-x----------------12-----------------------------|
|-5-5--5/12----5-5--5/12-----------------------------------------------|
|----------------------------------------------------------------------|

|----------------------------------------------------------------------|
|----------------------------------------------------------------------|
|-7-7--7/14----7-7--7/14----11-11----11--------------------------------|
|-x-x--x/-x----x-x--x/-x----------------12----12-12----12--------------|
|-5-5--5/12----5-5--5/12----------------------------------12-----------|
|----------------------------------------------------------------------|

|----------------------------------------------------------------------|
|----------------------------------------------------------------------|
|-7-7--7/14----7-7--7/14----11-11----11--------------------------------|
|-x-x--x/-x----x-x--x/-x----------------12----12-12----12--------------|
|-5-5--5/12----5-5--5/12----------------------------------12-----------|
|----------------------------------------------------------------------|

VERSE 1   X8
|----------------------------------------------------------------------|
|----------------------------------------------------------------------|
|-------------------------6-----6--------------------------------------|
|-------------4--------------------------------------------------------|
|-------4-5-----5-4-5--------------------------------------------------|
|-0-0-0-----0---------0-0---0-0----------------------------------------|
  . . .     .         . .   . .

CHORUS 1 X2
|----------------------------------------------------------------------|
|----------------------------------------------------------------------|
|-11-11---11-11------11-11-7----7-7------7-7-2----2-2------2-2-9-------|
|-9--9----9--9-------9--9--5----5-5------5-5-0----0-0------0-0-7-------|
|-9--9----9--9-------9--9--5----5-5------5-5-0----0-0------0-0-7-------|
|-9--9----9--9-------9--9--5----5-5------5-5-0----0-0------0-0-7-------|

|----------------------------------------------------------------------|
|----------------------------------------------------------------------|
|-9-9------9-9-11----11-11-------11-11-7----7-7------7-7-2----2-2------|
|-7-7------7-7-9-----9--9--------9--9--5----5-5------5-5-0----0-0------|
|-7-7------7-7-9-----9--9--------9--9--5----5-5------5-5-0----0-0------|
|-7-7------7-7-9-----9--9--------9--9--5----5-5------5-5-0----0-0------|

|----------------------------------------------------------------------|
|----------------------------------------------------------------------|
|-2-2-2-2-2----2--2----------------------------------------------------|
|-0-0-0-0-0----0--0----------------------------------------------------|
|-0-0-0-0-0----0--0----------------------------------------------------|
|-0-0-0-0-0----0--0----------------------------------------------------|
      . . .    .  .

INTRO 2
|----------------------------------------------------------------------|
|----------------------------------------------------------------------|
|-7-7--7/14----7-7--7/14----7-7--7/14----7-----------------------------|
|-x-x--x/-x----x-x--x/-x----x-x--x/-x----x-----------------------------|
|-5-5--5/12----5-5--5/12----5-5--5/12----5-----------------------------|
|----------------------------------------------------------------------|

the rest of the band come in here...
|----------------------------------------------------------------------|
|----------------------------------------------------------------------|
|-7-7--7/14----7-7--7/14----11-11----11--------------------------------|
|-x-x--x/-x----x-x--x/-x----------------12----12-12----12--------------|
|-5-5--5/12----5-5--5/12----------------------------------12-----------|
|----------------------------------------------------------------------|

For the 11th and 12th frets in the fast part use your plucking hand!

|----------------------------------------------------------------------|
|----------------------------------------------------------------------|
|-7-7--7/14----7-7--7/14----11-11----11--------11p7h9h11p7h9h11p7h9h12-|
|-x-x--x/-x----x-x--x/-x----------------12-----------------------------|
|-5-5--5/12----5-5--5/12-----------------------------------------------|
|----------------------------------------------------------------------|

|----------------------------------------------------------------------|
|----------------------------------------------------------------------|
|-7-7--7/14----7-7--7/14----11-11----11--------------------------------|
|-x-x--x/-x----x-x--x/-x----------------12----12-12----12--------------|
|-5-5--5/12----5-5--5/12----------------------------------12-----------|
|----------------------------------------------------------------------|

|----------------------------------------------------------------------|
|----------------------------------------------------------------------|
|-7-7--7/14----7-7--7/14----11-11----11--------------------------------|
|-x-x--x/-x----x-x--x/-x----------------12----12-12----12--------------|
|-5-5--5/12----5-5--5/12----------------------------------12-----------|
|----------------------------------------------------------------------|

VERSE 2   X8
|----------------------------------------------------------------------|
|----------------------------------------------------------------------|
|-------------------------6-----6--------------------------------------|
|-------------4--------------------------------------------------------|
|-------4-5-----5-4-5--------------------------------------------------|
|-0-0-0-----0---------0-0---0-0----------------------------------------|
  . . .     .         . .   . .

CHORUS 2 X2
|----------------------------------------------------------------------|
|----------------------------------------------------------------------|
|-11-11---11-11------11-11-7----7-7------7-7-2----2-2------2-2-9-------|
|-9--9----9--9-------9--9--5----5-5------5-5-0----0-0------0-0-7-------|
|-9--9----9--9-------9--9--5----5-5------5-5-0----0-0------0-0-7-------|
|-9--9----9--9-------9--9--5----5-5------5-5-0----0-0------0-0-7-------|

|----------------------------------------------------------------------|
|----------------------------------------------------------------------|
|-9-9------9-9-11----11-11-------11-11-7----7-7------7-7-2----2-2------|
|-7-7------7-7-9-----9--9--------9--9--5----5-5------5-5-0----0-0------|
|-7-7------7-7-9-----9--9--------9--9--5----5-5------5-5-0----0-0------|
|-7-7------7-7-9-----9--9--------9--9--5----5-5------5-5-0----0-0------|

|----------------------------------------------------------------------|
|----------------------------------------------------------------------|
|-2-2-2-2-2----2--2----------------------------------------------------|
|-0-0-0-0-0----0--0----------------------------------------------------|
|-0-0-0-0-0----0--0----------------------------------------------------|
|-0-0-0-0-0----0--0----------------------------------------------------|
      . . .    .  .

THEN...
|----------------------------------------------------------------------|
|----------------------------------------------------------------------|
|-7-7--7/14----7-7--7/14----7-7--7/14----7-----------------------------|
|-x-x--x/-x----x-x--x/-x----x-x--x/-x----x-----------------------------|
|-5-5--5/12----5-5--5/12----5-5--5/12----5-----------------------------|
|----------------------------------------------------------------------|

|----------------------------------------------------------------------|
|----------------------------------------------------------------------|
|-7-7--7/14----7-7--7/14----11-11----11--------------------------------|
|-x-x--x/-x----x-x--x/-x----------------12----12-12----12--------------|
|-5-5--5/12----5-5--5/12----------------------------------12-----------|
|----------------------------------------------------------------------|

|----------------------------------------------------------------------|
|----------------------------------------------------------------------|
|-7-7--7/14----7-7--7/14----11-11----11--------------------------------|
|-x-x--x/-x----x-x--x/-x----------------12----12-12----12--------------|
|-5-5--5/12----5-5--5/12----------------------------------12-----------|
|----------------------------------------------------------------------|

|----------------------------------------------------------------------|
|----------------------------------------------------------------------|
|----------------------------------------------------------------------|
|-------------4--------------------------------------------------------|
|-------4-5-----5-4-5--------------------------------------------------|
|-0-0-0-----0----------------------------------------------------------|
  . . .     .

funny cow bells and stuff...

|----------------------------------------------------------------------|
|----------------------------------------------------------------------|
|----------------------------------------------------------------------|
|-----4----------------4----------------4----------------4-5-4---------|
|-4-5---5-4-5----5-4-5---5-4-5----5-4-5---5-4-5----5-4-5-------5-------|
|----------------------------------------------------------------------|

|----------------------------------------------------------------------|
|----------------------------------------------------------------------|
|----------------------------------------------------------------------|
|-----4----------------4----------------4----------------4-------------|
|-4-5---5-4-5----5-4-5---5-4-5----5-4-5---5-4-5----5-4-5---5-4---------|
|----------------------------------------------------------------------|

CLEAN PART
|----------------------------------------------------------------------|
|--------10-----7------10-----------10-----7-------10------------------|
|-11-----9------7------9-----11-----9------7-------9-------------------|
|-9------7------5------7-----9------7------5-------7-------------------|
|-9------7------5------7-----9------7------5-------7-------------------|
|-9------7------5------7-----9------7------5-------7-------------------|

|----------------------------------------------------------------------|
|-10---10-8-7-8-10-8-7---7-------7---10---10-8-7-8-10-8-7---7-------7--|
|--------------------------9-7-9---9--------------------------9-7-9---9|
|----------------------------------------------------------------------|
|----------------------------------------------------------------------|
|----------------------------------------------------------------------|

|----------------------------------------------------------------------|
|----------------------------------------------------------------------|
|-7~-------------------------------------------------------------------|
|----------------------------------------------------------------------|
|----------------------------------------------------------------------|
|----------------------------------------------------------------------|

SCREAMY BIT X 4
|----------------------------------------------------------------------|
|---------7---------------7---------------7---------------7-8-7--------|
|-7-7-6-7---7-6-7---7-6-7---7-6-7---7-6-7---7-6-7---7-6-7-------7------|
|----------------------------------------------------------------------|
|----------------------------------------------------------------------|
|----------------------------------------------------------------------|

BREAKDOWN THINGY
|----------------------------------------------------------------------|
|----------------------------------------------------------------------|
|----------------------------------------------------------------------|
|---------------------------------------5------------------------------|
|-0---0---0--0--0--0-0-0-0-0-0-0-0-0-0---------------------------------|
|-0---0---0--0--0--0-0-0-0-0-0-0-0-0-0---------------------------------|
                                        ^
                                        |
                                      harmonic

OH S**T...

    X 4
|----------------------------------------------------------------------|
|----------------------------------------------------------------------|
|---------------------15---15---14/------------------------------------|
|-0-0-1-0-0-1-0-0-0-0--X-0--X-0--X/------------------------------------|
|-0-0-1-0-0-1-0-0-0-0-13-0-13-0-12/------------------------------------|
|-0-0-1-0-0-1-0-0-0-0----0----0----------------------------------------|
  . .   . .   . . . .    .    .

|----------------------------------------------------------------------|
|-----------------------------7---7------------------------------------|
|---------------------------5---5-----------15---15---14/--------------|
|-0-0------0-0-0-0------0-0---------0-0-0-0--X-0--X-0--X/--------------|
|-0-0------0-0-0-0------0-0---------0-0-0-0-13-0-13-0-12/--------------|
|-0-0------0-0-0-0------0-0---------0-0-0-0----0----0------------------|
  . .      . . . .      . .         . . . .    .    .
                               ^
                               |
                             harmonicS

|----------------------------------------------------------------------|
|--------------------------7---7---------------------------------------|
|------------------------5---5-----------15---15---14/-----------------|
|-0-0-----1-0-0------0-0---------0-0-0-0--X-0--X-0--X/-----------------|
|-0-0-----1-0-0------0-0---------0-0-0-0-13-0-13-0-12/-----------------|
|-0-0-----1-0-0------0-0---------0-0-0-0----0----0---------------------|
  . .       . .      . .         . . . .    .    .
                            ^
                            |
                          harmonicS

|----------------------------------------------------------------------|
|-----------------------------7---7------------------------------------|
|---------------------------5---5-----------15---15---14/--------------|
|-0-0------0-0-0-0------0-0---------0-0-0-0--X-0--X-0--X/--------------|
|-0-0------0-0-0-0------0-0---------0-0-0-0-13-0-13-0-12/--------------|
|-0-0------0-0-0-0------0-0---------0-0-0-0----0----0------------------|
  . .      . . . .      . .         . . . .    .    .
                               ^
                               |
                             harmonicS

|----------------------------------------------------------------------|
|--------------------------7---7---------------------------------------|
|------------------------5---5-----------15---15---14/-----------------|
|-0-0-----1-0-0------0-0---------0-0-0-0--X-0--X-0--X/-----------------|
|-0-0-----1-0-0------0-0---------0-0-0-0-13-0-13-0-12/-----------------|
|-0-0-----1-0-0------0-0---------0-0-0-0----0----0---------------------|
  . .       . .      . .         . . . .    .    .
                            ^
                            |
                          harmonicS

|----------------------------------------------------------------------|
|----------------------------------------------------------------------|
|----------------------------------------------------------------------|
|-0-0------------------------------------------------------------------|
|-0-0------------------------------------------------------------------|
|-0-0------------------------------------------------------------------|
  . .
Related for When A Jealous Man Finds A Gun tab