Song name
# A B C D E F G H I J K L M N O P Q R S T U V W X Y Z

Enter Shikari - Ok Time For Plan B tab

----------------------------------------------------------------------------
		        OK, TIME FOR PLAN B - ENTER SHIKARI
----------------------------------------------------------------------------

THIS IS TABED BY ENTER SHIKARI SO IT WILL BE RIGHT. ENJOY IT!1

IT'S PLAYED IN DROP C#, SO BASICALLY DROP D, THEN EVERY STRING TUNED DOWN HALF A STEP

INTRO

d#|-0-----------0-0-|
A#|-0-----------0-0-|
F#|-0-----------0-0-|
C#|-0-LET RING--0-0-| X 4
G#|-0-----------0-0-|
C#|-0-----------0-0-|

FIRST VERSE - LET THIS BATTLE COMMENCE, ONE LAST TIME

|--------------------------------------------|
|--------------------------------------------|
|--------------------------------------------|
|-2-2-2-2-2--2-2-2-2-2--0-0-0-0-0--0-0-0-0-0-| 
|-2-2-2-2-2--2-2-2-2-2--0-0-0-0-0--0-0-0-0-0-|
|-2-2-2-2-2--2-2-2-2-2--0-0-0-0-0--0-0-0-0-0-|

|--------------------------------------------0-----0------0-----|
|--------------------------------------------10P-0-7>8P-0-5>7<3-|
|---------------------------------------------------------------|
|-2-2-2-2-2--2-2-2-2-2--0-0-0-0-0--0-0-0-0-0--------------------| 
|-2-2-2-2-2--2-2-2-2-2--0-0-0-0-0--0-0-0-0-0--------------------|
|-2-2-2-2-2--2-2-2-2-2--0-0-0-0-0--0-0-0-0-0--------------------|

2ND HALF

|-----------0---0-0---0-0-0-0----0-|
|-----------5>7-7-7>8-8-8-8-8>10-7-|
|----------------------------------|
|-2-2-2-2-2------------------------| X2
|-2-2-2-2-2------------------------|
|-2-2-2-2-2------------------------|

|-----------0---0-0-0-0-0-0---0-----------0---0-0-0-0-0-0----0-|
|-----------7>8-8-8-8-8-8-8<7-7-----------7>8-8-8-8-8-8-8>10<7-|
|--------------------------------------------------------------|
|-0-0-0-0-0---------------------0-0-0-0-0-LET RING-------------| (X2 2ND HALF)
|-0-0-0-0-0---------------------0-0-0-0-0----------------------|
|-0-0-0-0-0---------------------0-0-0-0-0----------------------|

CHORUS - CLEAN GUITAR

|----3---3---3---------10----10----10-----------15-----15-----15------|
|--1---1---1---1----8-----8-----8-----8-----13-----13-----13-----13---|
|-4-4---4---4---4-11-11----11----11----11-16--16-----16-----16-----16-|
|-X---------------0-----------------------X---------------------------| X3
|-3---------------------------------------0---------------------------|
|---------------------------------------------------------------------|

|----3---3---3---------10----10----10-----|
|--1---1---1---1----8-----8-----8-----8---|
|-4-4---4---4---4-11-11----11----11----11-|
|-X---------------0-----------------------| 
|-3---------------------------------------|
|-----------------------------------------|


|-----------------------------------------------------------------|
|-13-13--13--13--13--13--13--13--13-13-13--13--13--13--13--13--13-|
|-16-16--16--16--16--16--16--16--16-16-16--16--16--16--16--16--16-|
|-----------------------------------------------------------------|
|-----------------------------------------------------------------|
|-----------------------------------------------------------------|

|-------------------------------------------------------|
|-------------------------------------------------------| (LISTEN TO THE RECORD
|-------------------------------------------------------| FOR HOW THIS BIT
|-2-2-2-2-2---------------------------------------------| GOES, ITS EASIER)
|-2-2-2-2-2-X4,THEN-10-10-10-10-7-7-7-7-9-9-9-9-5-5-5-5-| 
|-2-2-2-2-2---------------------------------------------|

THE STRAIGHT INTO TO THE SECOND HALF OF THE VERSE

|-----------0---0-0---0-0-0-0----0-|
|-----------5>7-7-7>8-8-8-8-8>10-7-|
|----------------------------------|
|-2-2-2-2-2------------------------| X2
|-2-2-2-2-2------------------------|
|-2-2-2-2-2------------------------|

|-----------0---0-0-0-0-0-0---0-----------0---0-0-0-0-0-0----0-|
|-----------7>8-8-8-8-8-8-8<7-7-----------7>8-8-8-8-8-8-8>10<7-|
|--------------------------------------------------------------|
|-0-0-0-0-0---------------------0-0-0-0-0-LET RING-------------| (X2 THIS WHOLE 
|-0-0-0-0-0---------------------0-0-0-0-0----------------------| PART)
|-0-0-0-0-0---------------------0-0-0-0-0----------------------|

|-3--3-3--3-3>--10--10-10--10-10-|
|-1--1-1--1-1>--8---8--8---8--8--|
|-4--4-4--4-4>--1---1--1---1--1--|
|-X--X-X--X-X--0---0--0---0--0---| STRUM IT LIGHTLY
|-3--3-3--3-3--------------------|
|--------------------------------|

MAIN BUILD UP RIFF

|--0-0-0-0---0-0---0-0-0-0----0----0-0-0-0-0-0-0-0-0-0-0-|
|--5-5-5-5>7-7-7>8-8-8-8-8>10-10<7-7-7-7-7-7-7-7-7-7-7-7-|
|----------------------------------0-------0-------------|
|--------------------------------------------------------| REPEAT THROUGH BUILD UP
|--------------------------------------------------------|
|--------------------------------------------------------|

|------------------------------|
|-----------1------------------|
|-----------4-LET RING---------|
|-2-2-2-2-2--------------------|
|-2-2-2-2-2--------------------|
|-2-2-2-2-2--------------------|

	    OK, TIME FOR PLAN B

|-------------------------------------------------------------------------|
|-CLOSED CHUGS---------------------------OPEN CHUGS-----------------------|
|-------------------------------------------------------------------------|
|-2-2-2-2-2----14-14<--------0--------->-0-0------------------------------|
|-2-2-2-2-2-X4-14-14<-SSLLLII0IDDEEEEE->-0-0-ETC, ITS EASIER TO LISTEN TO-|
|-2-2-2-2-2----14-14<--------0--------->-0-0-THE RECORD FOR THIS BIT------|

THE RANDOM FILL IN THE MIDDLE

|-----------------------------|
|-----------------------------|
|-----------------------------|
|-00-0-0-6<3>5<2---------0-0--|
|-00-0-0-X-------0H3H5H6-0-0--|
|-00-0-0-6<3>5<2---------0-0--|

AND THE OPEN “STABBY” CHORD AT THE END

|-----|
|--12-|
|--14-|
|--0--|
|--0--|
|--0--|


| > slide up
| < slide down
| h  hammer-on
| p  pull-off
| x  Mute note
============================================================================
Tap to rate this tab
 
# A B C D E F G H I J K L M N O P Q R S T U V W X Y Z